  0
SECTION
  2
HEADER
  9
$ACADVER
  1
AC1009
  9
$INSBASE
 10
0.0
 20
0.0
 30
0.0
  9
$EXTMIN
 10
-5.03
 20
-5.03
 30
-1.03
  9
$EXTMAX
 10
5.03
 20
5
 30
5.03
  0
ENDSEC
  0
SECTION
  2
TABLES
  0
TABLE
  2
LTYPE
 70
     2
  0
LTYPE
  2
CONTINUOUS
 70
    64
  3
________
 72
    65
 73
     0
 40
0.0
  0
LTYPE
  2
DASHED
 70
     0
  3
__ __ __
 72
    65
 73
     2
 40
0.75
 49
0.5
 49
-0.25
  0
LTYPE
  2
DOT
 70
     0
  3
. . . .
 72
    65
 73
     2
 40
0.25
 49
0.0
 49
-0.25
  0
LTYPE
  2
DASHDOT
 70
     0
  3
_ . _ .
 72
    65
 73
     4
 40
1.0
 49
0.5
 49
-0.25
 49
-0.0
 49
-0.25
  0
LTYPE
  2
DASHDOUBLEDOT
 70
     0
  3
__..__..
 72
    65
 73
     6
 40
1.25
 49
0.5
 49
-0.25
 49
-0.0
 49
-0.25
 49
-0.0
 49
-0.25
  0
LTYPE
  2
DASHTRIPLEDOT
 70
     0
  3
__...__...__
 72
    65
 73
     8
 40
1.5
 49
0.5
 49
-0.25
 49
-0.0
 49
-0.25
 49
-0.0
 49
-0.25
 49
-0.0
 49
-0.25
  0
ENDTAB
  0
TABLE
  2
LAYER
 70
    14
  0
LAYER
  2
0
 70
    64
 62
     7
  6
CONTINUOUS
  0
LAYER
  2
CEILING
 70
    64
 62
     7
  6
CONTINUOUS
  0
LAYER
  2
FLOORBLOCK
 70
    64
 62
     7
  6
CONTINUOUS
  0
LAYER
  2
FLOORHATCHING
 70
    64
 62
     7
  6
CONTINUOUS
  0
LAYER
  2
SNAP
 70
    64
 62
     7
  6
CONTINUOUS
  0
LAYER
  2
ATTACHPOINT
 70
    64
 62
     7
  6
CONTINUOUS
  0
LAYER
  2
72_ARTEK_AKFURNITURE_D2_CH_FRA
 70
    64
 62
18
  6
CONTINUOUS
  0
LAYER
  2
72_ARTEK_AKFURNITURE_D2SNAP
 70
    64
 62
1
  6
CONTINUOUS
  0
LAYER
  2
72_ARTEK_AKFURNITURE_D2_CH_SEA
 70
    64
 62
18
  6
CONTINUOUS
  0
LAYER
  2
72_ARTEK_AKFURNITURE_D2_CH_ARM
 70
    64
 62
18
  6
CONTINUOUS
  0
LAYER
  2
72_ARTEK_AKFURNITURE_D2_CH_BAC
 70
    64
 62
18
  6
CONTINUOUS
  0
LAYER
  2
72_ARTEK_AKFURNITURE_D2_CH_FOO
 70
    64
 62
18
  6
CONTINUOUS
  0
LAYER
  2
72_ARTEK_AKFURNITURE_D2_CH_000
 70
    64
 62
8
  6
CONTINUOUS
  0
LAYER
  2
72OFGO2D01_GRAFIK
 70
    64
 62
     1
  6
CONTINUOUS
  0
ENDTAB
  0
TABLE
  2
STYLE
 70
     1
  0
STYLE
  2
STANDARD
 70
     0
 40
0.0
 41
1.0
 50
0.0
 71
     0
 42
0.2
  3
txt
  4

  0
ENDTAB
  0
TABLE
  2
APPID
 70
    64
  0
APPID
  2
ACAD
 70
    64
  0
APPID
  2
OFML_10
 70
    64
  0
ENDTAB
  0
ENDSEC
  0
SECTION
  2
BLOCKS
  0
BLOCK
  8
0
  2
OB2D__000000
 70
    64
 10
0.0
 20
0.0
 30
0.0
  3
OB2D__000000
  0
POLYLINE
  8
72_ARTEK_AKFURNITURE_D2SNAP
 66
     1
 70
     0
 10
0.0
 20
0.0
 30
0.0
  0
VERTEX
  8
72_ARTEK_AKFURNITURE_D2SNAP
 10
0.568878
 20
0.255152
 30
0
  0
VERTEX
  8
72_ARTEK_AKFURNITURE_D2SNAP
 10
0.568637
 20
0.257591
 30
0
  0
VERTEX
  8
72_ARTEK_AKFURNITURE_D2SNAP
 10
0.567926
 20
0.259936
 30
0
  0
VERTEX
  8
72_ARTEK_AKFURNITURE_D2SNAP
 10
0.566771
 20
0.262097
 30
0
  0
VERTEX
  8
72_ARTEK_AKFURNITURE_D2SNAP
 10
0.565216
 20
0.263991
 30
0
  0
VERTEX
  8
72_ARTEK_AKFURNITURE_D2SNAP
 10
0.563322
 20
0.265545
 30
0
  0
VERTEX
  8
72_ARTEK_AKFURNITURE_D2SNAP
 10
0.561161
 20
0.266701
 30
0
  0
VERTEX
  8
72_ARTEK_AKFURNITURE_D2SNAP
 10
0.558816
 20
0.267412
 30
0
  0
VERTEX
  8
72_ARTEK_AKFURNITURE_D2SNAP
 10
0.556378
 20
0.267652
 30
0
  0
VERTEX
  8
72_ARTEK_AKFURNITURE_D2SNAP
 10
0.553939
 20
0.267412
 30
0
  0
VERTEX
  8
72_ARTEK_AKFURNITURE_D2SNAP
 10
0.551594
 20
0.266701
 30
0
  0
VERTEX
  8
72_ARTEK_AKFURNITURE_D2SNAP
 10
0.549433
 20
0.265545
 30
0
  0
VERTEX
  8
72_ARTEK_AKFURNITURE_D2SNAP
 10
0.547539
 20
0.263991
 30
0
  0
VERTEX
  8
72_ARTEK_AKFURNITURE_D2SNAP
 10
0.545984
 20
0.262097
 30
0
  0
VERTEX
  8
72_ARTEK_AKFURNITURE_D2SNAP
 10
0.544829
 20
0.259936
 30
0
  0
VERTEX
  8
72_ARTEK_AKFURNITURE_D2SNAP
 10
0.544118
 20
0.257591
 30
0
  0
VERTEX
  8
72_ARTEK_AKFURNITURE_D2SNAP
 10
0.543878
 20
0.255152
 30
0
  0
VERTEX
  8
72_ARTEK_AKFURNITURE_D2SNAP
 10
0.544118
 20
0.252713
 30
0
  0
VERTEX
  8
72_ARTEK_AKFURNITURE_D2SNAP
 10
0.544829
 20
0.250369
 30
0
  0
VERTEX
  8
72_ARTEK_AKFURNITURE_D2SNAP
 10
0.545984
 20
0.248207
 30
0
  0
VERTEX
  8
72_ARTEK_AKFURNITURE_D2SNAP
 10
0.547539
 20
0.246313
 30
0
  0
VERTEX
  8
72_ARTEK_AKFURNITURE_D2SNAP
 10
0.549433
 20
0.244759
 30
0
  0
VERTEX
  8
72_ARTEK_AKFURNITURE_D2SNAP
 10
0.551594
 20
0.243604
 30
0
  0
VERTEX
  8
72_ARTEK_AKFURNITURE_D2SNAP
 10
0.553939
 20
0.242892
 30
0
  0
VERTEX
  8
72_ARTEK_AKFURNITURE_D2SNAP
 10
0.556378
 20
0.242652
 30
0
  0
VERTEX
  8
72_ARTEK_AKFURNITURE_D2SNAP
 10
0.558816
 20
0.242892
 30
0
  0
VERTEX
  8
72_ARTEK_AKFURNITURE_D2SNAP
 10
0.561161
 20
0.243604
 30
0
  0
VERTEX
  8
72_ARTEK_AKFURNITURE_D2SNAP
 10
0.563322
 20
0.244759
 30
0
  0
VERTEX
  8
72_ARTEK_AKFURNITURE_D2SNAP
 10
0.565216
 20
0.246313
 30
0
  0
VERTEX
  8
72_ARTEK_AKFURNITURE_D2SNAP
 10
0.566771
 20
0.248207
 30
0
  0
VERTEX
  8
72_ARTEK_AKFURNITURE_D2SNAP
 10
0.567926
 20
0.250369
 30
0
  0
VERTEX
  8
72_ARTEK_AKFURNITURE_D2SNAP
 10
0.568637
 20
0.252713
 30
0
  0
VERTEX
  8
72_ARTEK_AKFURNITURE_D2SNAP
 10
0.568878
 20
0.255152
 30
0
  0
SEQEND
  0
POLYLINE
  8
72_ARTEK_AKFURNITURE_D2SNAP
 66
     1
 70
     0
 10
0.0
 20
0.0
 30
0.0
  0
VERTEX
  8
72_ARTEK_AKFURNITURE_D2SNAP
 10
0.5387
 20
0.237474
 30
0
  0
VERTEX
  8
72_ARTEK_AKFURNITURE_D2SNAP
 10
0.574055
 20
0.27283
 30
0
  0
SEQEND
  0
POLYLINE
  8
72_ARTEK_AKFURNITURE_D2SNAP
 66
     1
 70
     0
 10
0.0
 20
0.0
 30
0.0
  0
VERTEX
  8
72_ARTEK_AKFURNITURE_D2SNAP
 10
0.5387
 20
0.27283
 30
0
  0
VERTEX
  8
72_ARTEK_AKFURNITURE_D2SNAP
 10
0.574055
 20
0.237474
 30
0
  0
SEQEND
  0
POLYLINE
  8
72_ARTEK_AKFURNITURE_D2_CH_FOO
 66
     1
 70
     0
 10
0.0
 20
0.0
 30
0.0
  0
VERTEX
  8
72_ARTEK_AKFURNITURE_D2_CH_FOO
 10
-0.293622
 20
0.144871
 30
0
  0
VERTEX
  8
72_ARTEK_AKFURNITURE_D2_CH_FOO
 10
-0.289622
 20
0.144871
 30
0
  0
VERTEX
  8
72_ARTEK_AKFURNITURE_D2_CH_FOO
 10
-0.289622
 20
0.162871
 30
0
  0
VERTEX
  8
72_ARTEK_AKFURNITURE_D2_CH_FOO
 10
-0.293622
 20
0.162871
 30
0
  0
VERTEX
  8
72_ARTEK_AKFURNITURE_D2_CH_FOO
 10
-0.293622
 20
0.364574
 30
0
  0
VERTEX
  8
72_ARTEK_AKFURNITURE_D2_CH_FOO
 10
-0.289622
 20
0.364574
 30
0
  0
VERTEX
  8
72_ARTEK_AKFURNITURE_D2_CH_FOO
 10
-0.289622
 20
0.382574
 30
0
  0
VERTEX
  8
72_ARTEK_AKFURNITURE_D2_CH_FOO
 10
-0.293622
 20
0.382574
 30
0
  0
VERTEX
  8
72_ARTEK_AKFURNITURE_D2_CH_FOO
 10
-0.293622
 20
0.555385
 30
0
  0
VERTEX
  8
72_ARTEK_AKFURNITURE_D2_CH_FOO
 10
-0.293622
 20
0.555385
 30
0
  0
VERTEX
  8
72_ARTEK_AKFURNITURE_D2_CH_FOO
 10
-0.293759
 20
0.553915
 30
0
  0
VERTEX
  8
72_ARTEK_AKFURNITURE_D2_CH_FOO
 10
-0.294163
 20
0.552496
 30
0
  0
VERTEX
  8
72_ARTEK_AKFURNITURE_D2_CH_FOO
 10
-0.294821
 20
0.551174
 30
0
  0
VERTEX
  8
72_ARTEK_AKFURNITURE_D2_CH_FOO
 10
-0.29571
 20
0.549996
 30
0
  0
VERTEX
  8
72_ARTEK_AKFURNITURE_D2_CH_FOO
 10
-0.296801
 20
0.549001
 30
0
  0
VERTEX
  8
72_ARTEK_AKFURNITURE_D2_CH_FOO
 10
-0.298057
 20
0.548224
 30
0
  0
VERTEX
  8
72_ARTEK_AKFURNITURE_D2_CH_FOO
 10
-0.299433
 20
0.547691
 30
0
  0
VERTEX
  8
72_ARTEK_AKFURNITURE_D2_CH_FOO
 10
-0.300884
 20
0.54742
 30
0
  0
VERTEX
  8
72_ARTEK_AKFURNITURE_D2_CH_FOO
 10
-0.302361
 20
0.54742
 30
0
  0
VERTEX
  8
72_ARTEK_AKFURNITURE_D2_CH_FOO
 10
-0.303812
 20
0.547691
 30
0
  0
VERTEX
  8
72_ARTEK_AKFURNITURE_D2_CH_FOO
 10
-0.305188
 20
0.548224
 30
0
  0
VERTEX
  8
72_ARTEK_AKFURNITURE_D2_CH_FOO
 10
-0.306443
 20
0.549001
 30
0
  0
VERTEX
  8
72_ARTEK_AKFURNITURE_D2_CH_FOO
 10
-0.307534
 20
0.549996
 30
0
  0
VERTEX
  8
72_ARTEK_AKFURNITURE_D2_CH_FOO
 10
-0.308424
 20
0.551174
 30
0
  0
VERTEX
  8
72_ARTEK_AKFURNITURE_D2_CH_FOO
 10
-0.309082
 20
0.552496
 30
0
  0
VERTEX
  8
72_ARTEK_AKFURNITURE_D2_CH_FOO
 10
-0.309486
 20
0.553916
 30
0
  0
VERTEX
  8
72_ARTEK_AKFURNITURE_D2_CH_FOO
 10
-0.309622
 20
0.555386
 30
0
  0
VERTEX
  8
72_ARTEK_AKFURNITURE_D2_CH_FOO
 10
-0.309622
 20
-0.0436145
 30
0
  0
VERTEX
  8
72_ARTEK_AKFURNITURE_D2_CH_FOO
 10
-0.309622
 20
-0.0436145
 30
0
  0
VERTEX
  8
72_ARTEK_AKFURNITURE_D2_CH_FOO
 10
-0.309486
 20
-0.0421445
 30
0
  0
VERTEX
  8
72_ARTEK_AKFURNITURE_D2_CH_FOO
 10
-0.309082
 20
-0.0407245
 30
0
  0
VERTEX
  8
72_ARTEK_AKFURNITURE_D2_CH_FOO
 10
-0.308424
 20
-0.039403
 30
0
  0
VERTEX
  8
72_ARTEK_AKFURNITURE_D2_CH_FOO
 10
-0.307534
 20
-0.0382249
 30
0
  0
VERTEX
  8
72_ARTEK_AKFURNITURE_D2_CH_FOO
 10
-0.306443
 20
-0.0372303
 30
0
  0
VERTEX
  8
72_ARTEK_AKFURNITURE_D2_CH_FOO
 10
-0.305188
 20
-0.0364531
 30
0
  0
VERTEX
  8
72_ARTEK_AKFURNITURE_D2_CH_FOO
 10
-0.303812
 20
-0.0359198
 30
0
  0
VERTEX
  8
72_ARTEK_AKFURNITURE_D2_CH_FOO
 10
-0.302361
 20
-0.0356486
 30
0
  0
VERTEX
  8
72_ARTEK_AKFURNITURE_D2_CH_FOO
 10
-0.300884
 20
-0.0356486
 30
0
  0
VERTEX
  8
72_ARTEK_AKFURNITURE_D2_CH_FOO
 10
-0.299433
 20
-0.0359198
 30
0
  0
VERTEX
  8
72_ARTEK_AKFURNITURE_D2_CH_FOO
 10
-0.298056
 20
-0.0364531
 30
0
  0
VERTEX
  8
72_ARTEK_AKFURNITURE_D2_CH_FOO
 10
-0.296801
 20
-0.0372303
 30
0
  0
VERTEX
  8
72_ARTEK_AKFURNITURE_D2_CH_FOO
 10
-0.29571
 20
-0.0382249
 30
0
  0
VERTEX
  8
72_ARTEK_AKFURNITURE_D2_CH_FOO
 10
-0.294821
 20
-0.039403
 30
0
  0
VERTEX
  8
72_ARTEK_AKFURNITURE_D2_CH_FOO
 10
-0.294163
 20
-0.0407245
 30
0
  0
VERTEX
  8
72_ARTEK_AKFURNITURE_D2_CH_FOO
 10
-0.293759
 20
-0.0421445
 30
0
  0
VERTEX
  8
72_ARTEK_AKFURNITURE_D2_CH_FOO
 10
-0.293622
 20
-0.0436145
 30
0
  0
VERTEX
  8
72_ARTEK_AKFURNITURE_D2_CH_FOO
 10
-0.293622
 20
0.144871
 30
0
  0
SEQEND
  0
POLYLINE
  8
72_ARTEK_AKFURNITURE_D2_CH_FOO
 66
     1
 70
     0
 10
0.0
 20
0.0
 30
0.0
  0
VERTEX
  8
72_ARTEK_AKFURNITURE_D2_CH_FOO
 10
-0.309622
 20
0.570386
 30
0
  0
VERTEX
  8
72_ARTEK_AKFURNITURE_D2_CH_FOO
 10
-0.309622
 20
0.555386
 30
0
  0
VERTEX
  8
72_ARTEK_AKFURNITURE_D2_CH_FOO
 10
-0.309622
 20
0.555386
 30
0
  0
VERTEX
  8
72_ARTEK_AKFURNITURE_D2_CH_FOO
 10
-0.309486
 20
0.553916
 30
0
  0
VERTEX
  8
72_ARTEK_AKFURNITURE_D2_CH_FOO
 10
-0.309082
 20
0.552496
 30
0
  0
VERTEX
  8
72_ARTEK_AKFURNITURE_D2_CH_FOO
 10
-0.308424
 20
0.551174
 30
0
  0
VERTEX
  8
72_ARTEK_AKFURNITURE_D2_CH_FOO
 10
-0.307534
 20
0.549996
 30
0
  0
VERTEX
  8
72_ARTEK_AKFURNITURE_D2_CH_FOO
 10
-0.306443
 20
0.549001
 30
0
  0
VERTEX
  8
72_ARTEK_AKFURNITURE_D2_CH_FOO
 10
-0.305188
 20
0.548224
 30
0
  0
VERTEX
  8
72_ARTEK_AKFURNITURE_D2_CH_FOO
 10
-0.303812
 20
0.547691
 30
0
  0
VERTEX
  8
72_ARTEK_AKFURNITURE_D2_CH_FOO
 10
-0.302361
 20
0.54742
 30
0
  0
VERTEX
  8
72_ARTEK_AKFURNITURE_D2_CH_FOO
 10
-0.300884
 20
0.54742
 30
0
  0
VERTEX
  8
72_ARTEK_AKFURNITURE_D2_CH_FOO
 10
-0.299433
 20
0.547691
 30
0
  0
VERTEX
  8
72_ARTEK_AKFURNITURE_D2_CH_FOO
 10
-0.298057
 20
0.548224
 30
0
  0
VERTEX
  8
72_ARTEK_AKFURNITURE_D2_CH_FOO
 10
-0.296801
 20
0.549001
 30
0
  0
VERTEX
  8
72_ARTEK_AKFURNITURE_D2_CH_FOO
 10
-0.29571
 20
0.549996
 30
0
  0
VERTEX
  8
72_ARTEK_AKFURNITURE_D2_CH_FOO
 10
-0.294821
 20
0.551174
 30
0
  0
VERTEX
  8
72_ARTEK_AKFURNITURE_D2_CH_FOO
 10
-0.294163
 20
0.552496
 30
0
  0
VERTEX
  8
72_ARTEK_AKFURNITURE_D2_CH_FOO
 10
-0.293759
 20
0.553915
 30
0
  0
VERTEX
  8
72_ARTEK_AKFURNITURE_D2_CH_FOO
 10
-0.293622
 20
0.555385
 30
0
  0
VERTEX
  8
72_ARTEK_AKFURNITURE_D2_CH_FOO
 10
-0.293622
 20
0.570386
 30
0
  0
VERTEX
  8
72_ARTEK_AKFURNITURE_D2_CH_FOO
 10
-0.293622
 20
0.570386
 30
0
  0
VERTEX
  8
72_ARTEK_AKFURNITURE_D2_CH_FOO
 10
-0.293759
 20
0.571856
 30
0
  0
VERTEX
  8
72_ARTEK_AKFURNITURE_D2_CH_FOO
 10
-0.294163
 20
0.573275
 30
0
  0
VERTEX
  8
72_ARTEK_AKFURNITURE_D2_CH_FOO
 10
-0.294821
 20
0.574597
 30
0
  0
VERTEX
  8
72_ARTEK_AKFURNITURE_D2_CH_FOO
 10
-0.29571
 20
0.575775
 30
0
  0
VERTEX
  8
72_ARTEK_AKFURNITURE_D2_CH_FOO
 10
-0.296801
 20
0.57677
 30
0
  0
VERTEX
  8
72_ARTEK_AKFURNITURE_D2_CH_FOO
 10
-0.298056
 20
0.577547
 30
0
  0
VERTEX
  8
72_ARTEK_AKFURNITURE_D2_CH_FOO
 10
-0.299433
 20
0.57808
 30
0
  0
VERTEX
  8
72_ARTEK_AKFURNITURE_D2_CH_FOO
 10
-0.300884
 20
0.578351
 30
0
  0
VERTEX
  8
72_ARTEK_AKFURNITURE_D2_CH_FOO
 10
-0.302361
 20
0.578351
 30
0
  0
VERTEX
  8
72_ARTEK_AKFURNITURE_D2_CH_FOO
 10
-0.303812
 20
0.57808
 30
0
  0
VERTEX
  8
72_ARTEK_AKFURNITURE_D2_CH_FOO
 10
-0.305188
 20
0.577547
 30
0
  0
VERTEX
  8
72_ARTEK_AKFURNITURE_D2_CH_FOO
 10
-0.306443
 20
0.57677
 30
0
  0
VERTEX
  8
72_ARTEK_AKFURNITURE_D2_CH_FOO
 10
-0.307534
 20
0.575775
 30
0
  0
VERTEX
  8
72_ARTEK_AKFURNITURE_D2_CH_FOO
 10
-0.308424
 20
0.574597
 30
0
  0
VERTEX
  8
72_ARTEK_AKFURNITURE_D2_CH_FOO
 10
-0.309082
 20
0.573275
 30
0
  0
VERTEX
  8
72_ARTEK_AKFURNITURE_D2_CH_FOO
 10
-0.309486
 20
0.571856
 30
0
  0
VERTEX
  8
72_ARTEK_AKFURNITURE_D2_CH_FOO
 10
-0.309622
 20
0.570386
 30
0
  0
SEQEND
  0
POLYLINE
  8
72_ARTEK_AKFURNITURE_D2_CH_FOO
 66
     1
 70
     0
 10
0.0
 20
0.0
 30
0.0
  0
VERTEX
  8
72_ARTEK_AKFURNITURE_D2_CH_FOO
 10
-0.289622
 20
0.553886
 30
0
  0
VERTEX
  8
72_ARTEK_AKFURNITURE_D2_CH_FOO
 10
-0.289622
 20
0.571886
 30
0
  0
VERTEX
  8
72_ARTEK_AKFURNITURE_D2_CH_FOO
 10
-0.293622
 20
0.571886
 30
0
  0
VERTEX
  8
72_ARTEK_AKFURNITURE_D2_CH_FOO
 10
-0.293622
 20
0.553886
 30
0
  0
VERTEX
  8
72_ARTEK_AKFURNITURE_D2_CH_FOO
 10
-0.289622
 20
0.553886
 30
0
  0
SEQEND
  0
POLYLINE
  8
72_ARTEK_AKFURNITURE_D2_CH_FOO
 66
     1
 70
     0
 10
0.0
 20
0.0
 30
0.0
  0
VERTEX
  8
72_ARTEK_AKFURNITURE_D2_CH_FOO
 10
-0.309622
 20
-0.0436145
 30
0
  0
VERTEX
  8
72_ARTEK_AKFURNITURE_D2_CH_FOO
 10
-0.309622
 20
-0.0586145
 30
0
  0
VERTEX
  8
72_ARTEK_AKFURNITURE_D2_CH_FOO
 10
-0.309622
 20
-0.0586145
 30
0
  0
VERTEX
  8
72_ARTEK_AKFURNITURE_D2_CH_FOO
 10
-0.309486
 20
-0.0600845
 30
0
  0
VERTEX
  8
72_ARTEK_AKFURNITURE_D2_CH_FOO
 10
-0.309082
 20
-0.0615044
 30
0
  0
VERTEX
  8
72_ARTEK_AKFURNITURE_D2_CH_FOO
 10
-0.308424
 20
-0.0628259
 30
0
  0
VERTEX
  8
72_ARTEK_AKFURNITURE_D2_CH_FOO
 10
-0.307534
 20
-0.064004
 30
0
  0
VERTEX
  8
72_ARTEK_AKFURNITURE_D2_CH_FOO
 10
-0.306443
 20
-0.0649986
 30
0
  0
VERTEX
  8
72_ARTEK_AKFURNITURE_D2_CH_FOO
 10
-0.305188
 20
-0.0657758
 30
0
  0
VERTEX
  8
72_ARTEK_AKFURNITURE_D2_CH_FOO
 10
-0.303812
 20
-0.0663091
 30
0
  0
VERTEX
  8
72_ARTEK_AKFURNITURE_D2_CH_FOO
 10
-0.302361
 20
-0.0665804
 30
0
  0
VERTEX
  8
72_ARTEK_AKFURNITURE_D2_CH_FOO
 10
-0.300884
 20
-0.0665804
 30
0
  0
VERTEX
  8
72_ARTEK_AKFURNITURE_D2_CH_FOO
 10
-0.299433
 20
-0.0663091
 30
0
  0
VERTEX
  8
72_ARTEK_AKFURNITURE_D2_CH_FOO
 10
-0.298057
 20
-0.0657758
 30
0
  0
VERTEX
  8
72_ARTEK_AKFURNITURE_D2_CH_FOO
 10
-0.296801
 20
-0.0649987
 30
0
  0
VERTEX
  8
72_ARTEK_AKFURNITURE_D2_CH_FOO
 10
-0.29571
 20
-0.0640041
 30
0
  0
VERTEX
  8
72_ARTEK_AKFURNITURE_D2_CH_FOO
 10
-0.294821
 20
-0.062826
 30
0
  0
VERTEX
  8
72_ARTEK_AKFURNITURE_D2_CH_FOO
 10
-0.294163
 20
-0.0615045
 30
0
  0
VERTEX
  8
72_ARTEK_AKFURNITURE_D2_CH_FOO
 10
-0.293759
 20
-0.0600845
 30
0
  0
VERTEX
  8
72_ARTEK_AKFURNITURE_D2_CH_FOO
 10
-0.293622
 20
-0.0586145
 30
0
  0
VERTEX
  8
72_ARTEK_AKFURNITURE_D2_CH_FOO
 10
-0.293622
 20
-0.0436145
 30
0
  0
VERTEX
  8
72_ARTEK_AKFURNITURE_D2_CH_FOO
 10
-0.293622
 20
-0.0436145
 30
0
  0
VERTEX
  8
72_ARTEK_AKFURNITURE_D2_CH_FOO
 10
-0.293759
 20
-0.0421445
 30
0
  0
VERTEX
  8
72_ARTEK_AKFURNITURE_D2_CH_FOO
 10
-0.294163
 20
-0.0407245
 30
0
  0
VERTEX
  8
72_ARTEK_AKFURNITURE_D2_CH_FOO
 10
-0.294821
 20
-0.039403
 30
0
  0
VERTEX
  8
72_ARTEK_AKFURNITURE_D2_CH_FOO
 10
-0.29571
 20
-0.0382249
 30
0
  0
VERTEX
  8
72_ARTEK_AKFURNITURE_D2_CH_FOO
 10
-0.296801
 20
-0.0372303
 30
0
  0
VERTEX
  8
72_ARTEK_AKFURNITURE_D2_CH_FOO
 10
-0.298056
 20
-0.0364531
 30
0
  0
VERTEX
  8
72_ARTEK_AKFURNITURE_D2_CH_FOO
 10
-0.299433
 20
-0.0359198
 30
0
  0
VERTEX
  8
72_ARTEK_AKFURNITURE_D2_CH_FOO
 10
-0.300884
 20
-0.0356486
 30
0
  0
VERTEX
  8
72_ARTEK_AKFURNITURE_D2_CH_FOO
 10
-0.302361
 20
-0.0356486
 30
0
  0
VERTEX
  8
72_ARTEK_AKFURNITURE_D2_CH_FOO
 10
-0.303812
 20
-0.0359198
 30
0
  0
VERTEX
  8
72_ARTEK_AKFURNITURE_D2_CH_FOO
 10
-0.305188
 20
-0.0364531
 30
0
  0
VERTEX
  8
72_ARTEK_AKFURNITURE_D2_CH_FOO
 10
-0.306443
 20
-0.0372303
 30
0
  0
VERTEX
  8
72_ARTEK_AKFURNITURE_D2_CH_FOO
 10
-0.307534
 20
-0.0382249
 30
0
  0
VERTEX
  8
72_ARTEK_AKFURNITURE_D2_CH_FOO
 10
-0.308424
 20
-0.039403
 30
0
  0
VERTEX
  8
72_ARTEK_AKFURNITURE_D2_CH_FOO
 10
-0.309082
 20
-0.0407245
 30
0
  0
VERTEX
  8
72_ARTEK_AKFURNITURE_D2_CH_FOO
 10
-0.309486
 20
-0.0421445
 30
0
  0
VERTEX
  8
72_ARTEK_AKFURNITURE_D2_CH_FOO
 10
-0.309622
 20
-0.0436145
 30
0
  0
SEQEND
  0
POLYLINE
  8
72_ARTEK_AKFURNITURE_D2_CH_FOO
 66
     1
 70
     0
 10
0.0
 20
0.0
 30
0.0
  0
VERTEX
  8
72_ARTEK_AKFURNITURE_D2_CH_FOO
 10
-0.289622
 20
-0.0601145
 30
0
  0
VERTEX
  8
72_ARTEK_AKFURNITURE_D2_CH_FOO
 10
-0.289622
 20
-0.0421145
 30
0
  0
VERTEX
  8
72_ARTEK_AKFURNITURE_D2_CH_FOO
 10
-0.293622
 20
-0.0421145
 30
0
  0
VERTEX
  8
72_ARTEK_AKFURNITURE_D2_CH_FOO
 10
-0.293622
 20
-0.0601145
 30
0
  0
VERTEX
  8
72_ARTEK_AKFURNITURE_D2_CH_FOO
 10
-0.289622
 20
-0.0601145
 30
0
  0
SEQEND
  0
POLYLINE
  8
72_ARTEK_AKFURNITURE_D2_CH_FOO
 66
     1
 70
     0
 10
0.0
 20
0.0
 30
0.0
  0
VERTEX
  8
72_ARTEK_AKFURNITURE_D2_CH_FOO
 10
1.40638
 20
0.144871
 30
0
  0
VERTEX
  8
72_ARTEK_AKFURNITURE_D2_CH_FOO
 10
1.40238
 20
0.144871
 30
0
  0
VERTEX
  8
72_ARTEK_AKFURNITURE_D2_CH_FOO
 10
1.40238
 20
0.162871
 30
0
  0
VERTEX
  8
72_ARTEK_AKFURNITURE_D2_CH_FOO
 10
1.40638
 20
0.162871
 30
0
  0
VERTEX
  8
72_ARTEK_AKFURNITURE_D2_CH_FOO
 10
1.40638
 20
0.364574
 30
0
  0
VERTEX
  8
72_ARTEK_AKFURNITURE_D2_CH_FOO
 10
1.40238
 20
0.364574
 30
0
  0
VERTEX
  8
72_ARTEK_AKFURNITURE_D2_CH_FOO
 10
1.40238
 20
0.382574
 30
0
  0
VERTEX
  8
72_ARTEK_AKFURNITURE_D2_CH_FOO
 10
1.40638
 20
0.382574
 30
0
  0
VERTEX
  8
72_ARTEK_AKFURNITURE_D2_CH_FOO
 10
1.40638
 20
0.555385
 30
0
  0
VERTEX
  8
72_ARTEK_AKFURNITURE_D2_CH_FOO
 10
1.40638
 20
0.555385
 30
0
  0
VERTEX
  8
72_ARTEK_AKFURNITURE_D2_CH_FOO
 10
1.40651
 20
0.553915
 30
0
  0
VERTEX
  8
72_ARTEK_AKFURNITURE_D2_CH_FOO
 10
1.40692
 20
0.552496
 30
0
  0
VERTEX
  8
72_ARTEK_AKFURNITURE_D2_CH_FOO
 10
1.40758
 20
0.551174
 30
0
  0
VERTEX
  8
72_ARTEK_AKFURNITURE_D2_CH_FOO
 10
1.40847
 20
0.549996
 30
0
  0
VERTEX
  8
72_ARTEK_AKFURNITURE_D2_CH_FOO
 10
1.40956
 20
0.549001
 30
0
  0
VERTEX
  8
72_ARTEK_AKFURNITURE_D2_CH_FOO
 10
1.41081
 20
0.548224
 30
0
  0
VERTEX
  8
72_ARTEK_AKFURNITURE_D2_CH_FOO
 10
1.41219
 20
0.547691
 30
0
  0
VERTEX
  8
72_ARTEK_AKFURNITURE_D2_CH_FOO
 10
1.41364
 20
0.54742
 30
0
  0
VERTEX
  8
72_ARTEK_AKFURNITURE_D2_CH_FOO
 10
1.41512
 20
0.54742
 30
0
  0
VERTEX
  8
72_ARTEK_AKFURNITURE_D2_CH_FOO
 10
1.41657
 20
0.547691
 30
0
  0
VERTEX
  8
72_ARTEK_AKFURNITURE_D2_CH_FOO
 10
1.41794
 20
0.548224
 30
0
  0
VERTEX
  8
72_ARTEK_AKFURNITURE_D2_CH_FOO
 10
1.4192
 20
0.549001
 30
0
  0
VERTEX
  8
72_ARTEK_AKFURNITURE_D2_CH_FOO
 10
1.42029
 20
0.549996
 30
0
  0
VERTEX
  8
72_ARTEK_AKFURNITURE_D2_CH_FOO
 10
1.42118
 20
0.551174
 30
0
  0
VERTEX
  8
72_ARTEK_AKFURNITURE_D2_CH_FOO
 10
1.42184
 20
0.552496
 30
0
  0
VERTEX
  8
72_ARTEK_AKFURNITURE_D2_CH_FOO
 10
1.42224
 20
0.553916
 30
0
  0
VERTEX
  8
72_ARTEK_AKFURNITURE_D2_CH_FOO
 10
1.42238
 20
0.555386
 30
0
  0
VERTEX
  8
72_ARTEK_AKFURNITURE_D2_CH_FOO
 10
1.42238
 20
-0.0436145
 30
0
  0
VERTEX
  8
72_ARTEK_AKFURNITURE_D2_CH_FOO
 10
1.42238
 20
-0.0436145
 30
0
  0
VERTEX
  8
72_ARTEK_AKFURNITURE_D2_CH_FOO
 10
1.42224
 20
-0.0421445
 30
0
  0
VERTEX
  8
72_ARTEK_AKFURNITURE_D2_CH_FOO
 10
1.42184
 20
-0.0407245
 30
0
  0
VERTEX
  8
72_ARTEK_AKFURNITURE_D2_CH_FOO
 10
1.42118
 20
-0.039403
 30
0
  0
VERTEX
  8
72_ARTEK_AKFURNITURE_D2_CH_FOO
 10
1.42029
 20
-0.0382249
 30
0
  0
VERTEX
  8
72_ARTEK_AKFURNITURE_D2_CH_FOO
 10
1.4192
 20
-0.0372303
 30
0
  0
VERTEX
  8
72_ARTEK_AKFURNITURE_D2_CH_FOO
 10
1.41794
 20
-0.0364531
 30
0
  0
VERTEX
  8
72_ARTEK_AKFURNITURE_D2_CH_FOO
 10
1.41657
 20
-0.0359198
 30
0
  0
VERTEX
  8
72_ARTEK_AKFURNITURE_D2_CH_FOO
 10
1.41512
 20
-0.0356486
 30
0
  0
VERTEX
  8
72_ARTEK_AKFURNITURE_D2_CH_FOO
 10
1.41364
 20
-0.0356486
 30
0
  0
VERTEX
  8
72_ARTEK_AKFURNITURE_D2_CH_FOO
 10
1.41219
 20
-0.0359198
 30
0
  0
VERTEX
  8
72_ARTEK_AKFURNITURE_D2_CH_FOO
 10
1.41081
 20
-0.0364531
 30
0
  0
VERTEX
  8
72_ARTEK_AKFURNITURE_D2_CH_FOO
 10
1.40956
 20
-0.0372303
 30
0
  0
VERTEX
  8
72_ARTEK_AKFURNITURE_D2_CH_FOO
 10
1.40847
 20
-0.0382249
 30
0
  0
VERTEX
  8
72_ARTEK_AKFURNITURE_D2_CH_FOO
 10
1.40758
 20
-0.039403
 30
0
  0
VERTEX
  8
72_ARTEK_AKFURNITURE_D2_CH_FOO
 10
1.40692
 20
-0.0407245
 30
0
  0
VERTEX
  8
72_ARTEK_AKFURNITURE_D2_CH_FOO
 10
1.40651
 20
-0.0421445
 30
0
  0
VERTEX
  8
72_ARTEK_AKFURNITURE_D2_CH_FOO
 10
1.40638
 20
-0.0436145
 30
0
  0
VERTEX
  8
72_ARTEK_AKFURNITURE_D2_CH_FOO
 10
1.40638
 20
0.144871
 30
0
  0
SEQEND
  0
POLYLINE
  8
72_ARTEK_AKFURNITURE_D2_CH_FOO
 66
     1
 70
     0
 10
0.0
 20
0.0
 30
0.0
  0
VERTEX
  8
72_ARTEK_AKFURNITURE_D2_CH_FOO
 10
1.42238
 20
0.570386
 30
0
  0
VERTEX
  8
72_ARTEK_AKFURNITURE_D2_CH_FOO
 10
1.42238
 20
0.555386
 30
0
  0
VERTEX
  8
72_ARTEK_AKFURNITURE_D2_CH_FOO
 10
1.42238
 20
0.555386
 30
0
  0
VERTEX
  8
72_ARTEK_AKFURNITURE_D2_CH_FOO
 10
1.42224
 20
0.553916
 30
0
  0
VERTEX
  8
72_ARTEK_AKFURNITURE_D2_CH_FOO
 10
1.42184
 20
0.552496
 30
0
  0
VERTEX
  8
72_ARTEK_AKFURNITURE_D2_CH_FOO
 10
1.42118
 20
0.551174
 30
0
  0
VERTEX
  8
72_ARTEK_AKFURNITURE_D2_CH_FOO
 10
1.42029
 20
0.549996
 30
0
  0
VERTEX
  8
72_ARTEK_AKFURNITURE_D2_CH_FOO
 10
1.4192
 20
0.549001
 30
0
  0
VERTEX
  8
72_ARTEK_AKFURNITURE_D2_CH_FOO
 10
1.41794
 20
0.548224
 30
0
  0
VERTEX
  8
72_ARTEK_AKFURNITURE_D2_CH_FOO
 10
1.41657
 20
0.547691
 30
0
  0
VERTEX
  8
72_ARTEK_AKFURNITURE_D2_CH_FOO
 10
1.41512
 20
0.54742
 30
0
  0
VERTEX
  8
72_ARTEK_AKFURNITURE_D2_CH_FOO
 10
1.41364
 20
0.54742
 30
0
  0
VERTEX
  8
72_ARTEK_AKFURNITURE_D2_CH_FOO
 10
1.41219
 20
0.547691
 30
0
  0
VERTEX
  8
72_ARTEK_AKFURNITURE_D2_CH_FOO
 10
1.41081
 20
0.548224
 30
0
  0
VERTEX
  8
72_ARTEK_AKFURNITURE_D2_CH_FOO
 10
1.40956
 20
0.549001
 30
0
  0
VERTEX
  8
72_ARTEK_AKFURNITURE_D2_CH_FOO
 10
1.40847
 20
0.549996
 30
0
  0
VERTEX
  8
72_ARTEK_AKFURNITURE_D2_CH_FOO
 10
1.40758
 20
0.551174
 30
0
  0
VERTEX
  8
72_ARTEK_AKFURNITURE_D2_CH_FOO
 10
1.40692
 20
0.552496
 30
0
  0
VERTEX
  8
72_ARTEK_AKFURNITURE_D2_CH_FOO
 10
1.40651
 20
0.553915
 30
0
  0
VERTEX
  8
72_ARTEK_AKFURNITURE_D2_CH_FOO
 10
1.40638
 20
0.555385
 30
0
  0
VERTEX
  8
72_ARTEK_AKFURNITURE_D2_CH_FOO
 10
1.40638
 20
0.570386
 30
0
  0
VERTEX
  8
72_ARTEK_AKFURNITURE_D2_CH_FOO
 10
1.40638
 20
0.570386
 30
0
  0
VERTEX
  8
72_ARTEK_AKFURNITURE_D2_CH_FOO
 10
1.40651
 20
0.571856
 30
0
  0
VERTEX
  8
72_ARTEK_AKFURNITURE_D2_CH_FOO
 10
1.40692
 20
0.573275
 30
0
  0
VERTEX
  8
72_ARTEK_AKFURNITURE_D2_CH_FOO
 10
1.40758
 20
0.574597
 30
0
  0
VERTEX
  8
72_ARTEK_AKFURNITURE_D2_CH_FOO
 10
1.40847
 20
0.575775
 30
0
  0
VERTEX
  8
72_ARTEK_AKFURNITURE_D2_CH_FOO
 10
1.40956
 20
0.57677
 30
0
  0
VERTEX
  8
72_ARTEK_AKFURNITURE_D2_CH_FOO
 10
1.41081
 20
0.577547
 30
0
  0
VERTEX
  8
72_ARTEK_AKFURNITURE_D2_CH_FOO
 10
1.41219
 20
0.57808
 30
0
  0
VERTEX
  8
72_ARTEK_AKFURNITURE_D2_CH_FOO
 10
1.41364
 20
0.578351
 30
0
  0
VERTEX
  8
72_ARTEK_AKFURNITURE_D2_CH_FOO
 10
1.41512
 20
0.578351
 30
0
  0
VERTEX
  8
72_ARTEK_AKFURNITURE_D2_CH_FOO
 10
1.41657
 20
0.57808
 30
0
  0
VERTEX
  8
72_ARTEK_AKFURNITURE_D2_CH_FOO
 10
1.41794
 20
0.577547
 30
0
  0
VERTEX
  8
72_ARTEK_AKFURNITURE_D2_CH_FOO
 10
1.4192
 20
0.57677
 30
0
  0
VERTEX
  8
72_ARTEK_AKFURNITURE_D2_CH_FOO
 10
1.42029
 20
0.575775
 30
0
  0
VERTEX
  8
72_ARTEK_AKFURNITURE_D2_CH_FOO
 10
1.42118
 20
0.574597
 30
0
  0
VERTEX
  8
72_ARTEK_AKFURNITURE_D2_CH_FOO
 10
1.42184
 20
0.573275
 30
0
  0
VERTEX
  8
72_ARTEK_AKFURNITURE_D2_CH_FOO
 10
1.42224
 20
0.571856
 30
0
  0
VERTEX
  8
72_ARTEK_AKFURNITURE_D2_CH_FOO
 10
1.42238
 20
0.570386
 30
0
  0
SEQEND
  0
POLYLINE
  8
72_ARTEK_AKFURNITURE_D2_CH_FOO
 66
     1
 70
     0
 10
0.0
 20
0.0
 30
0.0
  0
VERTEX
  8
72_ARTEK_AKFURNITURE_D2_CH_FOO
 10
1.40238
 20
0.553886
 30
0
  0
VERTEX
  8
72_ARTEK_AKFURNITURE_D2_CH_FOO
 10
1.40238
 20
0.571886
 30
0
  0
VERTEX
  8
72_ARTEK_AKFURNITURE_D2_CH_FOO
 10
1.40638
 20
0.571886
 30
0
  0
VERTEX
  8
72_ARTEK_AKFURNITURE_D2_CH_FOO
 10
1.40638
 20
0.553886
 30
0
  0
VERTEX
  8
72_ARTEK_AKFURNITURE_D2_CH_FOO
 10
1.40238
 20
0.553886
 30
0
  0
SEQEND
  0
POLYLINE
  8
72_ARTEK_AKFURNITURE_D2_CH_FOO
 66
     1
 70
     0
 10
0.0
 20
0.0
 30
0.0
  0
VERTEX
  8
72_ARTEK_AKFURNITURE_D2_CH_FOO
 10
1.42238
 20
-0.0436145
 30
0
  0
VERTEX
  8
72_ARTEK_AKFURNITURE_D2_CH_FOO
 10
1.42238
 20
-0.0586145
 30
0
  0
VERTEX
  8
72_ARTEK_AKFURNITURE_D2_CH_FOO
 10
1.42238
 20
-0.0586145
 30
0
  0
VERTEX
  8
72_ARTEK_AKFURNITURE_D2_CH_FOO
 10
1.42224
 20
-0.0600845
 30
0
  0
VERTEX
  8
72_ARTEK_AKFURNITURE_D2_CH_FOO
 10
1.42184
 20
-0.0615044
 30
0
  0
VERTEX
  8
72_ARTEK_AKFURNITURE_D2_CH_FOO
 10
1.42118
 20
-0.0628259
 30
0
  0
VERTEX
  8
72_ARTEK_AKFURNITURE_D2_CH_FOO
 10
1.42029
 20
-0.064004
 30
0
  0
VERTEX
  8
72_ARTEK_AKFURNITURE_D2_CH_FOO
 10
1.4192
 20
-0.0649986
 30
0
  0
VERTEX
  8
72_ARTEK_AKFURNITURE_D2_CH_FOO
 10
1.41794
 20
-0.0657758
 30
0
  0
VERTEX
  8
72_ARTEK_AKFURNITURE_D2_CH_FOO
 10
1.41657
 20
-0.0663091
 30
0
  0
VERTEX
  8
72_ARTEK_AKFURNITURE_D2_CH_FOO
 10
1.41512
 20
-0.0665804
 30
0
  0
VERTEX
  8
72_ARTEK_AKFURNITURE_D2_CH_FOO
 10
1.41364
 20
-0.0665804
 30
0
  0
VERTEX
  8
72_ARTEK_AKFURNITURE_D2_CH_FOO
 10
1.41219
 20
-0.0663091
 30
0
  0
VERTEX
  8
72_ARTEK_AKFURNITURE_D2_CH_FOO
 10
1.41081
 20
-0.0657758
 30
0
  0
VERTEX
  8
72_ARTEK_AKFURNITURE_D2_CH_FOO
 10
1.40956
 20
-0.0649987
 30
0
  0
VERTEX
  8
72_ARTEK_AKFURNITURE_D2_CH_FOO
 10
1.40847
 20
-0.0640041
 30
0
  0
VERTEX
  8
72_ARTEK_AKFURNITURE_D2_CH_FOO
 10
1.40758
 20
-0.062826
 30
0
  0
VERTEX
  8
72_ARTEK_AKFURNITURE_D2_CH_FOO
 10
1.40692
 20
-0.0615045
 30
0
  0
VERTEX
  8
72_ARTEK_AKFURNITURE_D2_CH_FOO
 10
1.40651
 20
-0.0600845
 30
0
  0
VERTEX
  8
72_ARTEK_AKFURNITURE_D2_CH_FOO
 10
1.40638
 20
-0.0586145
 30
0
  0
VERTEX
  8
72_ARTEK_AKFURNITURE_D2_CH_FOO
 10
1.40638
 20
-0.0436145
 30
0
  0
VERTEX
  8
72_ARTEK_AKFURNITURE_D2_CH_FOO
 10
1.40638
 20
-0.0436145
 30
0
  0
VERTEX
  8
72_ARTEK_AKFURNITURE_D2_CH_FOO
 10
1.40651
 20
-0.0421445
 30
0
  0
VERTEX
  8
72_ARTEK_AKFURNITURE_D2_CH_FOO
 10
1.40692
 20
-0.0407245
 30
0
  0
VERTEX
  8
72_ARTEK_AKFURNITURE_D2_CH_FOO
 10
1.40758
 20
-0.039403
 30
0
  0
VERTEX
  8
72_ARTEK_AKFURNITURE_D2_CH_FOO
 10
1.40847
 20
-0.0382249
 30
0
  0
VERTEX
  8
72_ARTEK_AKFURNITURE_D2_CH_FOO
 10
1.40956
 20
-0.0372303
 30
0
  0
VERTEX
  8
72_ARTEK_AKFURNITURE_D2_CH_FOO
 10
1.41081
 20
-0.0364531
 30
0
  0
VERTEX
  8
72_ARTEK_AKFURNITURE_D2_CH_FOO
 10
1.41219
 20
-0.0359198
 30
0
  0
VERTEX
  8
72_ARTEK_AKFURNITURE_D2_CH_FOO
 10
1.41364
 20
-0.0356486
 30
0
  0
VERTEX
  8
72_ARTEK_AKFURNITURE_D2_CH_FOO
 10
1.41512
 20
-0.0356486
 30
0
  0
VERTEX
  8
72_ARTEK_AKFURNITURE_D2_CH_FOO
 10
1.41657
 20
-0.0359198
 30
0
  0
VERTEX
  8
72_ARTEK_AKFURNITURE_D2_CH_FOO
 10
1.41794
 20
-0.0364531
 30
0
  0
VERTEX
  8
72_ARTEK_AKFURNITURE_D2_CH_FOO
 10
1.4192
 20
-0.0372303
 30
0
  0
VERTEX
  8
72_ARTEK_AKFURNITURE_D2_CH_FOO
 10
1.42029
 20
-0.0382249
 30
0
  0
VERTEX
  8
72_ARTEK_AKFURNITURE_D2_CH_FOO
 10
1.42118
 20
-0.039403
 30
0
  0
VERTEX
  8
72_ARTEK_AKFURNITURE_D2_CH_FOO
 10
1.42184
 20
-0.0407245
 30
0
  0
VERTEX
  8
72_ARTEK_AKFURNITURE_D2_CH_FOO
 10
1.42224
 20
-0.0421445
 30
0
  0
VERTEX
  8
72_ARTEK_AKFURNITURE_D2_CH_FOO
 10
1.42238
 20
-0.0436145
 30
0
  0
SEQEND
  0
POLYLINE
  8
72_ARTEK_AKFURNITURE_D2_CH_FOO
 66
     1
 70
     0
 10
0.0
 20
0.0
 30
0.0
  0
VERTEX
  8
72_ARTEK_AKFURNITURE_D2_CH_FOO
 10
1.40238
 20
-0.0601145
 30
0
  0
VERTEX
  8
72_ARTEK_AKFURNITURE_D2_CH_FOO
 10
1.40238
 20
-0.0421145
 30
0
  0
VERTEX
  8
72_ARTEK_AKFURNITURE_D2_CH_FOO
 10
1.40638
 20
-0.0421145
 30
0
  0
VERTEX
  8
72_ARTEK_AKFURNITURE_D2_CH_FOO
 10
1.40638
 20
-0.0601145
 30
0
  0
VERTEX
  8
72_ARTEK_AKFURNITURE_D2_CH_FOO
 10
1.40238
 20
-0.0601145
 30
0
  0
SEQEND
  0
POLYLINE
  8
72_ARTEK_AKFURNITURE_D2SNAP
 66
     1
 70
     0
 10
0.0
 20
0.0
 30
0.0
  0
VERTEX
  8
72_ARTEK_AKFURNITURE_D2SNAP
 10
0.568878
 20
0.255152
 30
0
  0
VERTEX
  8
72_ARTEK_AKFURNITURE_D2SNAP
 10
0.568637
 20
0.257591
 30
0
  0
VERTEX
  8
72_ARTEK_AKFURNITURE_D2SNAP
 10
0.567926
 20
0.259936
 30
0
  0
VERTEX
  8
72_ARTEK_AKFURNITURE_D2SNAP
 10
0.566771
 20
0.262097
 30
0
  0
VERTEX
  8
72_ARTEK_AKFURNITURE_D2SNAP
 10
0.565216
 20
0.263991
 30
0
  0
VERTEX
  8
72_ARTEK_AKFURNITURE_D2SNAP
 10
0.563322
 20
0.265545
 30
0
  0
VERTEX
  8
72_ARTEK_AKFURNITURE_D2SNAP
 10
0.561161
 20
0.266701
 30
0
  0
VERTEX
  8
72_ARTEK_AKFURNITURE_D2SNAP
 10
0.558816
 20
0.267412
 30
0
  0
VERTEX
  8
72_ARTEK_AKFURNITURE_D2SNAP
 10
0.556378
 20
0.267652
 30
0
  0
VERTEX
  8
72_ARTEK_AKFURNITURE_D2SNAP
 10
0.553939
 20
0.267412
 30
0
  0
VERTEX
  8
72_ARTEK_AKFURNITURE_D2SNAP
 10
0.551594
 20
0.266701
 30
0
  0
VERTEX
  8
72_ARTEK_AKFURNITURE_D2SNAP
 10
0.549433
 20
0.265545
 30
0
  0
VERTEX
  8
72_ARTEK_AKFURNITURE_D2SNAP
 10
0.547539
 20
0.263991
 30
0
  0
VERTEX
  8
72_ARTEK_AKFURNITURE_D2SNAP
 10
0.545984
 20
0.262097
 30
0
  0
VERTEX
  8
72_ARTEK_AKFURNITURE_D2SNAP
 10
0.544829
 20
0.259936
 30
0
  0
VERTEX
  8
72_ARTEK_AKFURNITURE_D2SNAP
 10
0.544118
 20
0.257591
 30
0
  0
VERTEX
  8
72_ARTEK_AKFURNITURE_D2SNAP
 10
0.543878
 20
0.255152
 30
0
  0
VERTEX
  8
72_ARTEK_AKFURNITURE_D2SNAP
 10
0.544118
 20
0.252713
 30
0
  0
VERTEX
  8
72_ARTEK_AKFURNITURE_D2SNAP
 10
0.544829
 20
0.250369
 30
0
  0
VERTEX
  8
72_ARTEK_AKFURNITURE_D2SNAP
 10
0.545984
 20
0.248207
 30
0
  0
VERTEX
  8
72_ARTEK_AKFURNITURE_D2SNAP
 10
0.547539
 20
0.246313
 30
0
  0
VERTEX
  8
72_ARTEK_AKFURNITURE_D2SNAP
 10
0.549433
 20
0.244759
 30
0
  0
VERTEX
  8
72_ARTEK_AKFURNITURE_D2SNAP
 10
0.551594
 20
0.243604
 30
0
  0
VERTEX
  8
72_ARTEK_AKFURNITURE_D2SNAP
 10
0.553939
 20
0.242892
 30
0
  0
VERTEX
  8
72_ARTEK_AKFURNITURE_D2SNAP
 10
0.556378
 20
0.242652
 30
0
  0
VERTEX
  8
72_ARTEK_AKFURNITURE_D2SNAP
 10
0.558816
 20
0.242892
 30
0
  0
VERTEX
  8
72_ARTEK_AKFURNITURE_D2SNAP
 10
0.561161
 20
0.243604
 30
0
  0
VERTEX
  8
72_ARTEK_AKFURNITURE_D2SNAP
 10
0.563322
 20
0.244759
 30
0
  0
VERTEX
  8
72_ARTEK_AKFURNITURE_D2SNAP
 10
0.565216
 20
0.246313
 30
0
  0
VERTEX
  8
72_ARTEK_AKFURNITURE_D2SNAP
 10
0.566771
 20
0.248207
 30
0
  0
VERTEX
  8
72_ARTEK_AKFURNITURE_D2SNAP
 10
0.567926
 20
0.250369
 30
0
  0
VERTEX
  8
72_ARTEK_AKFURNITURE_D2SNAP
 10
0.568637
 20
0.252713
 30
0
  0
VERTEX
  8
72_ARTEK_AKFURNITURE_D2SNAP
 10
0.568878
 20
0.255152
 30
0
  0
SEQEND
  0
POLYLINE
  8
72_ARTEK_AKFURNITURE_D2SNAP
 66
     1
 70
     0
 10
0.0
 20
0.0
 30
0.0
  0
VERTEX
  8
72_ARTEK_AKFURNITURE_D2SNAP
 10
0.5387
 20
0.237474
 30
0
  0
VERTEX
  8
72_ARTEK_AKFURNITURE_D2SNAP
 10
0.574055
 20
0.27283
 30
0
  0
SEQEND
  0
POLYLINE
  8
72_ARTEK_AKFURNITURE_D2SNAP
 66
     1
 70
     0
 10
0.0
 20
0.0
 30
0.0
  0
VERTEX
  8
72_ARTEK_AKFURNITURE_D2SNAP
 10
0.5387
 20
0.27283
 30
0
  0
VERTEX
  8
72_ARTEK_AKFURNITURE_D2SNAP
 10
0.574055
 20
0.237474
 30
0
  0
SEQEND
  0
POLYLINE
  8
72_ARTEK_AKFURNITURE_D2_CH_BAC
 66
     1
 70
     0
 10
0.0
 20
0.0
 30
0.0
  0
VERTEX
  8
72_ARTEK_AKFURNITURE_D2_CH_BAC
 10
0.27326
 20
0.396438
 30
0
  0
VERTEX
  8
72_ARTEK_AKFURNITURE_D2_CH_BAC
 10
0.275378
 20
0.398369
 30
0
  0
VERTEX
  8
72_ARTEK_AKFURNITURE_D2_CH_BAC
 10
0.275378
 20
0.402166
 30
0
  0
VERTEX
  8
72_ARTEK_AKFURNITURE_D2_CH_BAC
 10
0.275378
 20
0.409759
 30
0
  0
VERTEX
  8
72_ARTEK_AKFURNITURE_D2_CH_BAC
 10
0.275378
 20
0.424946
 30
0
  0
VERTEX
  8
72_ARTEK_AKFURNITURE_D2_CH_BAC
 10
0.275378
 20
0.455321
 30
0
  0
VERTEX
  8
72_ARTEK_AKFURNITURE_D2_CH_BAC
 10
0.275378
 20
0.485695
 30
0
  0
VERTEX
  8
72_ARTEK_AKFURNITURE_D2_CH_BAC
 10
0.275378
 20
0.500882
 30
0
  0
VERTEX
  8
72_ARTEK_AKFURNITURE_D2_CH_BAC
 10
0.275378
 20
0.502781
 30
0
  0
VERTEX
  8
72_ARTEK_AKFURNITURE_D2_CH_BAC
 10
0.275368
 20
0.50371
 30
0
  0
VERTEX
  8
72_ARTEK_AKFURNITURE_D2_CH_BAC
 10
0.274602
 20
0.503146
 30
0
  0
VERTEX
  8
72_ARTEK_AKFURNITURE_D2_CH_BAC
 10
0.270409
 20
0.501125
 30
0
  0
VERTEX
  8
72_ARTEK_AKFURNITURE_D2_CH_BAC
 10
0.262733
 20
0.499428
 30
0
  0
VERTEX
  8
72_ARTEK_AKFURNITURE_D2_CH_BAC
 10
0.258054
 20
0.498892
 30
0
  0
VERTEX
  8
72_ARTEK_AKFURNITURE_D2_CH_BAC
 10
0.255039
 20
0.498791
 30
0
  0
VERTEX
  8
72_ARTEK_AKFURNITURE_D2_CH_BAC
 10
0.247881
 20
0.498738
 30
0
  0
VERTEX
  8
72_ARTEK_AKFURNITURE_D2_CH_BAC
 10
0.237369
 20
0.498665
 30
0
  0
VERTEX
  8
72_ARTEK_AKFURNITURE_D2_CH_BAC
 10
0.223847
 20
0.498534
 30
0
  0
VERTEX
  8
72_ARTEK_AKFURNITURE_D2_CH_BAC
 10
0.206456
 20
0.498352
 30
0
  0
VERTEX
  8
72_ARTEK_AKFURNITURE_D2_CH_BAC
 10
0.196147
 20
0.498243
 30
0
  0
VERTEX
  8
72_ARTEK_AKFURNITURE_D2_CH_BAC
 10
0.182927
 20
0.498118
 30
0
  0
VERTEX
  8
72_ARTEK_AKFURNITURE_D2_CH_BAC
 10
0.166067
 20
0.497976
 30
0
  0
VERTEX
  8
72_ARTEK_AKFURNITURE_D2_CH_BAC
 10
0.145565
 20
0.497817
 30
0
  0
VERTEX
  8
72_ARTEK_AKFURNITURE_D2_CH_BAC
 10
0.0989907
 20
0.497526
 30
0
  0
VERTEX
  8
72_ARTEK_AKFURNITURE_D2_CH_BAC
 10
0.052319
 20
0.497379
 30
0
  0
VERTEX
  8
72_ARTEK_AKFURNITURE_D2_CH_BAC
 10
0.0311887
 20
0.497344
 30
0
  0
VERTEX
  8
72_ARTEK_AKFURNITURE_D2_CH_BAC
 10
0.0133594
 20
0.497322
 30
0
  0
VERTEX
  8
72_ARTEK_AKFURNITURE_D2_CH_BAC
 10
-0.00116896
 20
0.497311
 30
0
  0
VERTEX
  8
72_ARTEK_AKFURNITURE_D2_CH_BAC
 10
-0.0137371
 20
0.497313
 30
0
  0
VERTEX
  8
72_ARTEK_AKFURNITURE_D2_CH_BAC
 10
-0.0291721
 20
0.497327
 30
0
  0
VERTEX
  8
72_ARTEK_AKFURNITURE_D2_CH_BAC
 10
-0.0479079
 20
0.497353
 30
0
  0
VERTEX
  8
72_ARTEK_AKFURNITURE_D2_CH_BAC
 10
-0.0699287
 20
0.497391
 30
0
  0
VERTEX
  8
72_ARTEK_AKFURNITURE_D2_CH_BAC
 10
-0.0932901
 20
0.497456
 30
0
  0
VERTEX
  8
72_ARTEK_AKFURNITURE_D2_CH_BAC
 10
-0.140013
 20
0.497696
 30
0
  0
VERTEX
  8
72_ARTEK_AKFURNITURE_D2_CH_BAC
 10
-0.162803
 20
0.497862
 30
0
  0
VERTEX
  8
72_ARTEK_AKFURNITURE_D2_CH_BAC
 10
-0.182305
 20
0.498016
 30
0
  0
VERTEX
  8
72_ARTEK_AKFURNITURE_D2_CH_BAC
 10
-0.198165
 20
0.498154
 30
0
  0
VERTEX
  8
72_ARTEK_AKFURNITURE_D2_CH_BAC
 10
-0.210385
 20
0.498274
 30
0
  0
VERTEX
  8
72_ARTEK_AKFURNITURE_D2_CH_BAC
 10
-0.229256
 20
0.498473
 30
0
  0
VERTEX
  8
72_ARTEK_AKFURNITURE_D2_CH_BAC
 10
-0.24408
 20
0.498624
 30
0
  0
VERTEX
  8
72_ARTEK_AKFURNITURE_D2_CH_BAC
 10
-0.255651
 20
0.498718
 30
0
  0
VERTEX
  8
72_ARTEK_AKFURNITURE_D2_CH_BAC
 10
-0.264163
 20
0.498766
 30
0
  0
VERTEX
  8
72_ARTEK_AKFURNITURE_D2_CH_BAC
 10
-0.268681
 20
0.498849
 30
0
  0
VERTEX
  8
72_ARTEK_AKFURNITURE_D2_CH_BAC
 10
-0.270061
 20
0.49897
 30
0
  0
VERTEX
  8
72_ARTEK_AKFURNITURE_D2_CH_BAC
 10
-0.272433
 20
0.499223
 30
0
  0
VERTEX
  8
72_ARTEK_AKFURNITURE_D2_CH_BAC
 10
-0.276858
 20
0.499873
 30
0
  0
VERTEX
  8
72_ARTEK_AKFURNITURE_D2_CH_BAC
 10
-0.283377
 20
0.501781
 30
0
  0
VERTEX
  8
72_ARTEK_AKFURNITURE_D2_CH_BAC
 10
-0.286853
 20
0.503894
 30
0
  0
VERTEX
  8
72_ARTEK_AKFURNITURE_D2_CH_BAC
 10
-0.28877
 20
0.506452
 30
0
  0
VERTEX
  8
72_ARTEK_AKFURNITURE_D2_CH_BAC
 10
-0.289622
 20
0.509386
 30
0
  0
VERTEX
  8
72_ARTEK_AKFURNITURE_D2_CH_BAC
 10
-0.289622
 20
0.500979
 30
0
  0
VERTEX
  8
72_ARTEK_AKFURNITURE_D2_CH_BAC
 10
-0.289622
 20
0.433718
 30
0
  0
VERTEX
  8
72_ARTEK_AKFURNITURE_D2_CH_BAC
 10
-0.289622
 20
0.416902
 30
0
  0
VERTEX
  8
72_ARTEK_AKFURNITURE_D2_CH_BAC
 10
-0.289622
 20
0.408495
 30
0
  0
VERTEX
  8
72_ARTEK_AKFURNITURE_D2_CH_BAC
 10
-0.289397
 20
0.404594
 30
0
  0
VERTEX
  8
72_ARTEK_AKFURNITURE_D2_CH_BAC
 10
-0.288899
 20
0.402065
 30
0
  0
VERTEX
  8
72_ARTEK_AKFURNITURE_D2_CH_BAC
 10
-0.287831
 20
0.399093
 30
0
  0
VERTEX
  8
72_ARTEK_AKFURNITURE_D2_CH_BAC
 10
-0.284528
 20
0.39645
 30
0
  0
VERTEX
  8
72_ARTEK_AKFURNITURE_D2_CH_BAC
 10
-0.280846
 20
0.395154
 30
0
  0
VERTEX
  8
72_ARTEK_AKFURNITURE_D2_CH_BAC
 10
-0.27534
 20
0.394096
 30
0
  0
VERTEX
  8
72_ARTEK_AKFURNITURE_D2_CH_BAC
 10
-0.26694
 20
0.393542
 30
0
  0
VERTEX
  8
72_ARTEK_AKFURNITURE_D2_CH_BAC
 10
-0.260561
 20
0.39353
 30
0
  0
VERTEX
  8
72_ARTEK_AKFURNITURE_D2_CH_BAC
 10
-0.248355
 20
0.393437
 30
0
  0
VERTEX
  8
72_ARTEK_AKFURNITURE_D2_CH_BAC
 10
-0.244169
 20
0.393396
 30
0
  0
VERTEX
  8
72_ARTEK_AKFURNITURE_D2_CH_BAC
 10
-0.238587
 20
0.393335
 30
0
  0
VERTEX
  8
72_ARTEK_AKFURNITURE_D2_CH_BAC
 10
-0.225346
 20
0.393182
 30
0
  0
VERTEX
  8
72_ARTEK_AKFURNITURE_D2_CH_BAC
 10
-0.211494
 20
0.393024
 30
0
  0
VERTEX
  8
72_ARTEK_AKFURNITURE_D2_CH_BAC
 10
-0.203614
 20
0.392938
 30
0
  0
VERTEX
  8
72_ARTEK_AKFURNITURE_D2_CH_BAC
 10
-0.194175
 20
0.39284
 30
0
  0
VERTEX
  8
72_ARTEK_AKFURNITURE_D2_CH_BAC
 10
-0.181401
 20
0.392717
 30
0
  0
VERTEX
  8
72_ARTEK_AKFURNITURE_D2_CH_BAC
 10
-0.165423
 20
0.39257
 30
0
  0
VERTEX
  8
72_ARTEK_AKFURNITURE_D2_CH_BAC
 10
-0.131949
 20
0.392318
 30
0
  0
VERTEX
  8
72_ARTEK_AKFURNITURE_D2_CH_BAC
 10
-0.0984747
 20
0.392148
 30
0
  0
VERTEX
  8
72_ARTEK_AKFURNITURE_D2_CH_BAC
 10
-0.0820341
 20
0.392095
 30
0
  0
VERTEX
  8
72_ARTEK_AKFURNITURE_D2_CH_BAC
 10
-0.0687464
 20
0.392058
 30
0
  0
VERTEX
  8
72_ARTEK_AKFURNITURE_D2_CH_BAC
 10
-0.0593281
 20
0.392038
 30
0
  0
VERTEX
  8
72_ARTEK_AKFURNITURE_D2_CH_BAC
 10
-0.0517265
 20
0.392028
 30
0
  0
VERTEX
  8
72_ARTEK_AKFURNITURE_D2_CH_BAC
 10
-0.0431781
 20
0.392022
 30
0
  0
VERTEX
  8
72_ARTEK_AKFURNITURE_D2_CH_BAC
 10
-0.0334691
 20
0.39202
 30
0
  0
VERTEX
  8
72_ARTEK_AKFURNITURE_D2_CH_BAC
 10
-0.0211441
 20
0.392019
 30
0
  0
VERTEX
  8
72_ARTEK_AKFURNITURE_D2_CH_BAC
 10
-0.00591125
 20
0.392019
 30
0
  0
VERTEX
  8
72_ARTEK_AKFURNITURE_D2_CH_BAC
 10
0.00942125
 20
0.392019
 30
0
  0
VERTEX
  8
72_ARTEK_AKFURNITURE_D2_CH_BAC
 10
0.0218467
 20
0.39202
 30
0
  0
VERTEX
  8
72_ARTEK_AKFURNITURE_D2_CH_BAC
 10
0.0316206
 20
0.392022
 30
0
  0
VERTEX
  8
72_ARTEK_AKFURNITURE_D2_CH_BAC
 10
0.0402022
 20
0.392028
 30
0
  0
VERTEX
  8
72_ARTEK_AKFURNITURE_D2_CH_BAC
 10
0.0478269
 20
0.392037
 30
0
  0
VERTEX
  8
72_ARTEK_AKFURNITURE_D2_CH_BAC
 10
0.0571114
 20
0.392057
 30
0
  0
VERTEX
  8
72_ARTEK_AKFURNITURE_D2_CH_BAC
 10
0.0702654
 20
0.392093
 30
0
  0
VERTEX
  8
72_ARTEK_AKFURNITURE_D2_CH_BAC
 10
0.0866514
 20
0.392146
 30
0
  0
VERTEX
  8
72_ARTEK_AKFURNITURE_D2_CH_BAC
 10
0.120125
 20
0.392314
 30
0
  0
VERTEX
  8
72_ARTEK_AKFURNITURE_D2_CH_BAC
 10
0.1536
 20
0.392565
 30
0
  0
VERTEX
  8
72_ARTEK_AKFURNITURE_D2_CH_BAC
 10
0.169654
 20
0.392712
 30
0
  0
VERTEX
  8
72_ARTEK_AKFURNITURE_D2_CH_BAC
 10
0.182545
 20
0.392836
 30
0
  0
VERTEX
  8
72_ARTEK_AKFURNITURE_D2_CH_BAC
 10
0.192085
 20
0.392935
 30
0
  0
VERTEX
  8
72_ARTEK_AKFURNITURE_D2_CH_BAC
 10
0.199989
 20
0.393021
 30
0
  0
VERTEX
  8
72_ARTEK_AKFURNITURE_D2_CH_BAC
 10
0.213871
 20
0.393179
 30
0
  0
VERTEX
  8
72_ARTEK_AKFURNITURE_D2_CH_BAC
 10
0.227124
 20
0.393333
 30
0
  0
VERTEX
  8
72_ARTEK_AKFURNITURE_D2_CH_BAC
 10
0.232755
 20
0.393394
 30
0
  0
VERTEX
  8
72_ARTEK_AKFURNITURE_D2_CH_BAC
 10
0.236989
 20
0.393435
 30
0
  0
VERTEX
  8
72_ARTEK_AKFURNITURE_D2_CH_BAC
 10
0.249237
 20
0.39353
 30
0
  0
VERTEX
  8
72_ARTEK_AKFURNITURE_D2_CH_BAC
 10
0.255639
 20
0.393541
 30
0
  0
VERTEX
  8
72_ARTEK_AKFURNITURE_D2_CH_BAC
 10
0.264035
 20
0.394089
 30
0
  0
VERTEX
  8
72_ARTEK_AKFURNITURE_D2_CH_BAC
 10
0.269561
 20
0.395143
 30
0
  0
VERTEX
  8
72_ARTEK_AKFURNITURE_D2_CH_BAC
 10
0.27326
 20
0.396438
 30
0
  0
SEQEND
  0
POLYLINE
  8
72_ARTEK_AKFURNITURE_D2_CH_BAC
 66
     1
 70
     0
 10
0.0
 20
0.0
 30
0.0
  0
VERTEX
  8
72_ARTEK_AKFURNITURE_D2_CH_BAC
 10
0.275378
 20
0.503718
 30
0
  0
VERTEX
  8
72_ARTEK_AKFURNITURE_D2_CH_BAC
 10
0.275378
 20
0.558574
 30
0
  0
VERTEX
  8
72_ARTEK_AKFURNITURE_D2_CH_BAC
 10
0.275378
 20
0.586002
 30
0
  0
VERTEX
  8
72_ARTEK_AKFURNITURE_D2_CH_BAC
 10
0.275378
 20
0.599716
 30
0
  0
VERTEX
  8
72_ARTEK_AKFURNITURE_D2_CH_BAC
 10
0.275219
 20
0.603067
 30
0
  0
VERTEX
  8
72_ARTEK_AKFURNITURE_D2_CH_BAC
 10
0.272024
 20
0.604981
 30
0
  0
VERTEX
  8
72_ARTEK_AKFURNITURE_D2_CH_BAC
 10
0.269506
 20
0.6059
 30
0
  0
VERTEX
  8
72_ARTEK_AKFURNITURE_D2_CH_BAC
 10
0.264422
 20
0.607106
 30
0
  0
VERTEX
  8
72_ARTEK_AKFURNITURE_D2_CH_BAC
 10
0.255433
 20
0.60804
 30
0
  0
VERTEX
  8
72_ARTEK_AKFURNITURE_D2_CH_BAC
 10
0.25176
 20
0.608041
 30
0
  0
VERTEX
  8
72_ARTEK_AKFURNITURE_D2_CH_BAC
 10
0.246235
 20
0.608069
 30
0
  0
VERTEX
  8
72_ARTEK_AKFURNITURE_D2_CH_BAC
 10
0.238257
 20
0.608132
 30
0
  0
VERTEX
  8
72_ARTEK_AKFURNITURE_D2_CH_BAC
 10
0.233403
 20
0.608176
 30
0
  0
VERTEX
  8
72_ARTEK_AKFURNITURE_D2_CH_BAC
 10
0.226383
 20
0.608253
 30
0
  0
VERTEX
  8
72_ARTEK_AKFURNITURE_D2_CH_BAC
 10
0.221792
 20
0.608305
 30
0
  0
VERTEX
  8
72_ARTEK_AKFURNITURE_D2_CH_BAC
 10
0.215889
 20
0.608371
 30
0
  0
VERTEX
  8
72_ARTEK_AKFURNITURE_D2_CH_BAC
 10
0.208664
 20
0.608451
 30
0
  0
VERTEX
  8
72_ARTEK_AKFURNITURE_D2_CH_BAC
 10
0.200116
 20
0.608545
 30
0
  0
VERTEX
  8
72_ARTEK_AKFURNITURE_D2_CH_BAC
 10
0.160563
 20
0.608942
 30
0
  0
VERTEX
  8
72_ARTEK_AKFURNITURE_D2_CH_BAC
 10
0.0769019
 20
0.609462
 30
0
  0
VERTEX
  8
72_ARTEK_AKFURNITURE_D2_CH_BAC
 10
-0.0904225
 20
0.609455
 30
0
  0
VERTEX
  8
72_ARTEK_AKFURNITURE_D2_CH_BAC
 10
-0.174073
 20
0.608922
 30
0
  0
VERTEX
  8
72_ARTEK_AKFURNITURE_D2_CH_BAC
 10
-0.19428
 20
0.608726
 30
0
  0
VERTEX
  8
72_ARTEK_AKFURNITURE_D2_CH_BAC
 10
-0.213334
 20
0.608524
 30
0
  0
VERTEX
  8
72_ARTEK_AKFURNITURE_D2_CH_BAC
 10
-0.221594
 20
0.608432
 30
0
  0
VERTEX
  8
72_ARTEK_AKFURNITURE_D2_CH_BAC
 10
-0.228531
 20
0.608355
 30
0
  0
VERTEX
  8
72_ARTEK_AKFURNITURE_D2_CH_BAC
 10
-0.234146
 20
0.608292
 30
0
  0
VERTEX
  8
72_ARTEK_AKFURNITURE_D2_CH_BAC
 10
-0.238497
 20
0.608243
 30
0
  0
VERTEX
  8
72_ARTEK_AKFURNITURE_D2_CH_BAC
 10
-0.24528
 20
0.60817
 30
0
  0
VERTEX
  8
72_ARTEK_AKFURNITURE_D2_CH_BAC
 10
-0.249936
 20
0.608128
 30
0
  0
VERTEX
  8
72_ARTEK_AKFURNITURE_D2_CH_BAC
 10
-0.257892
 20
0.608066
 30
0
  0
VERTEX
  8
72_ARTEK_AKFURNITURE_D2_CH_BAC
 10
-0.263205
 20
0.608041
 30
0
  0
VERTEX
  8
72_ARTEK_AKFURNITURE_D2_CH_BAC
 10
-0.266868
 20
0.608039
 30
0
  0
VERTEX
  8
72_ARTEK_AKFURNITURE_D2_CH_BAC
 10
-0.27579
 20
0.607086
 30
0
  0
VERTEX
  8
72_ARTEK_AKFURNITURE_D2_CH_BAC
 10
-0.280827
 20
0.605875
 30
0
  0
VERTEX
  8
72_ARTEK_AKFURNITURE_D2_CH_BAC
 10
-0.283321
 20
0.604957
 30
0
  0
VERTEX
  8
72_ARTEK_AKFURNITURE_D2_CH_BAC
 10
-0.286501
 20
0.603038
 30
0
  0
VERTEX
  8
72_ARTEK_AKFURNITURE_D2_CH_BAC
 10
-0.288375
 20
0.600717
 30
0
  0
VERTEX
  8
72_ARTEK_AKFURNITURE_D2_CH_BAC
 10
-0.288542
 20
0.599137
 30
0
  0
VERTEX
  8
72_ARTEK_AKFURNITURE_D2_CH_BAC
 10
-0.289332
 20
0.596951
 30
0
  0
VERTEX
  8
72_ARTEK_AKFURNITURE_D2_CH_BAC
 10
-0.289622
 20
0.592582
 30
0
  0
VERTEX
  8
72_ARTEK_AKFURNITURE_D2_CH_BAC
 10
-0.289622
 20
0.584604
 30
0
  0
VERTEX
  8
72_ARTEK_AKFURNITURE_D2_CH_BAC
 10
-0.289622
 20
0.552695
 30
0
  0
VERTEX
  8
72_ARTEK_AKFURNITURE_D2_CH_BAC
 10
-0.289622
 20
0.520786
 30
0
  0
VERTEX
  8
72_ARTEK_AKFURNITURE_D2_CH_BAC
 10
-0.289622
 20
0.512808
 30
0
  0
VERTEX
  8
72_ARTEK_AKFURNITURE_D2_CH_BAC
 10
-0.289494
 20
0.509004
 30
0
  0
VERTEX
  8
72_ARTEK_AKFURNITURE_D2_CH_BAC
 10
-0.289041
 20
0.507041
 30
0
  0
VERTEX
  8
72_ARTEK_AKFURNITURE_D2_CH_BAC
 10
-0.287597
 20
0.504588
 30
0
  0
VERTEX
  8
72_ARTEK_AKFURNITURE_D2_CH_BAC
 10
-0.28476
 20
0.502454
 30
0
  0
VERTEX
  8
72_ARTEK_AKFURNITURE_D2_CH_BAC
 10
-0.279851
 20
0.500565
 30
0
  0
VERTEX
  8
72_ARTEK_AKFURNITURE_D2_CH_BAC
 10
-0.271871
 20
0.499158
 30
0
  0
VERTEX
  8
72_ARTEK_AKFURNITURE_D2_CH_BAC
 10
-0.269607
 20
0.498923
 30
0
  0
VERTEX
  8
72_ARTEK_AKFURNITURE_D2_CH_BAC
 10
-0.267657
 20
0.498817
 30
0
  0
VERTEX
  8
72_ARTEK_AKFURNITURE_D2_CH_BAC
 10
-0.262172
 20
0.498752
 30
0
  0
VERTEX
  8
72_ARTEK_AKFURNITURE_D2_CH_BAC
 10
-0.25329
 20
0.498702
 30
0
  0
VERTEX
  8
72_ARTEK_AKFURNITURE_D2_CH_BAC
 10
-0.241756
 20
0.498601
 30
0
  0
VERTEX
  8
72_ARTEK_AKFURNITURE_D2_CH_BAC
 10
-0.227141
 20
0.498451
 30
0
  0
VERTEX
  8
72_ARTEK_AKFURNITURE_D2_CH_BAC
 10
-0.208836
 20
0.498258
 30
0
  0
VERTEX
  8
72_ARTEK_AKFURNITURE_D2_CH_BAC
 10
-0.196829
 20
0.498142
 30
0
  0
VERTEX
  8
72_ARTEK_AKFURNITURE_D2_CH_BAC
 10
-0.181543
 20
0.49801
 30
0
  0
VERTEX
  8
72_ARTEK_AKFURNITURE_D2_CH_BAC
 10
-0.16298
 20
0.497863
 30
0
  0
VERTEX
  8
72_ARTEK_AKFURNITURE_D2_CH_BAC
 10
-0.141402
 20
0.497705
 30
0
  0
VERTEX
  8
72_ARTEK_AKFURNITURE_D2_CH_BAC
 10
-0.0534087
 20
0.497362
 30
0
  0
VERTEX
  8
72_ARTEK_AKFURNITURE_D2_CH_BAC
 10
-0.0347241
 20
0.497334
 30
0
  0
VERTEX
  8
72_ARTEK_AKFURNITURE_D2_CH_BAC
 10
-0.0190113
 20
0.497316
 30
0
  0
VERTEX
  8
72_ARTEK_AKFURNITURE_D2_CH_BAC
 10
0.00613629
 20
0.497315
 30
0
  0
VERTEX
  8
72_ARTEK_AKFURNITURE_D2_CH_BAC
 10
0.0215045
 20
0.497331
 30
0
  0
VERTEX
  8
72_ARTEK_AKFURNITURE_D2_CH_BAC
 10
0.0398444
 20
0.497358
 30
0
  0
VERTEX
  8
72_ARTEK_AKFURNITURE_D2_CH_BAC
 10
0.0610889
 20
0.497396
 30
0
  0
VERTEX
  8
72_ARTEK_AKFURNITURE_D2_CH_BAC
 10
0.0832547
 20
0.49746
 30
0
  0
VERTEX
  8
72_ARTEK_AKFURNITURE_D2_CH_BAC
 10
0.127586
 20
0.497688
 30
0
  0
VERTEX
  8
72_ARTEK_AKFURNITURE_D2_CH_BAC
 10
0.14937
 20
0.497845
 30
0
  0
VERTEX
  8
72_ARTEK_AKFURNITURE_D2_CH_BAC
 10
0.168313
 20
0.497994
 30
0
  0
VERTEX
  8
72_ARTEK_AKFURNITURE_D2_CH_BAC
 10
0.183979
 20
0.498127
 30
0
  0
VERTEX
  8
72_ARTEK_AKFURNITURE_D2_CH_BAC
 10
0.196367
 20
0.498245
 30
0
  0
VERTEX
  8
72_ARTEK_AKFURNITURE_D2_CH_BAC
 10
0.214936
 20
0.498441
 30
0
  0
VERTEX
  8
72_ARTEK_AKFURNITURE_D2_CH_BAC
 10
0.229761
 20
0.498594
 30
0
  0
VERTEX
  8
72_ARTEK_AKFURNITURE_D2_CH_BAC
 10
0.241448
 20
0.498698
 30
0
  0
VERTEX
  8
72_ARTEK_AKFURNITURE_D2_CH_BAC
 10
0.250494
 20
0.49875
 30
0
  0
VERTEX
  8
72_ARTEK_AKFURNITURE_D2_CH_BAC
 10
0.256197
 20
0.498812
 30
0
  0
VERTEX
  8
72_ARTEK_AKFURNITURE_D2_CH_BAC
 10
0.258296
 20
0.498916
 30
0
  0
VERTEX
  8
72_ARTEK_AKFURNITURE_D2_CH_BAC
 10
0.25943
 20
0.499033
 30
0
  0
VERTEX
  8
72_ARTEK_AKFURNITURE_D2_CH_BAC
 10
0.261661
 20
0.499282
 30
0
  0
VERTEX
  8
72_ARTEK_AKFURNITURE_D2_CH_BAC
 10
0.26582
 20
0.499917
 30
0
  0
VERTEX
  8
72_ARTEK_AKFURNITURE_D2_CH_BAC
 10
0.272023
 20
0.501731
 30
0
  0
VERTEX
  8
72_ARTEK_AKFURNITURE_D2_CH_BAC
 10
0.275378
 20
0.503718
 30
0
  0
SEQEND
  0
POLYLINE
  8
72_ARTEK_AKFURNITURE_D2_CH_BAC
 66
     1
 70
     0
 10
0.0
 20
0.0
 30
0.0
  0
VERTEX
  8
72_ARTEK_AKFURNITURE_D2_CH_BAC
 10
0.837702
 20
0.50347
 30
0
  0
VERTEX
  8
72_ARTEK_AKFURNITURE_D2_CH_BAC
 10
0.837378
 20
0.443679
 30
0
  0
VERTEX
  8
72_ARTEK_AKFURNITURE_D2_CH_BAC
 10
0.837378
 20
0.413456
 30
0
  0
VERTEX
  8
72_ARTEK_AKFURNITURE_D2_CH_BAC
 10
0.837378
 20
0.398344
 30
0
  0
VERTEX
  8
72_ARTEK_AKFURNITURE_D2_CH_BAC
 10
0.839498
 20
0.396437
 30
0
  0
VERTEX
  8
72_ARTEK_AKFURNITURE_D2_CH_BAC
 10
0.84193
 20
0.395507
 30
0
  0
VERTEX
  8
72_ARTEK_AKFURNITURE_D2_CH_BAC
 10
0.849694
 20
0.393985
 30
0
  0
VERTEX
  8
72_ARTEK_AKFURNITURE_D2_CH_BAC
 10
0.856001
 20
0.39357
 30
0
  0
VERTEX
  8
72_ARTEK_AKFURNITURE_D2_CH_BAC
 10
0.860387
 20
0.393537
 30
0
  0
VERTEX
  8
72_ARTEK_AKFURNITURE_D2_CH_BAC
 10
0.862704
 20
0.393534
 30
0
  0
VERTEX
  8
72_ARTEK_AKFURNITURE_D2_CH_BAC
 10
0.866298
 20
0.393512
 30
0
  0
VERTEX
  8
72_ARTEK_AKFURNITURE_D2_CH_BAC
 10
0.875366
 20
0.393439
 30
0
  0
VERTEX
  8
72_ARTEK_AKFURNITURE_D2_CH_BAC
 10
0.881566
 20
0.393378
 30
0
  0
VERTEX
  8
72_ARTEK_AKFURNITURE_D2_CH_BAC
 10
0.890407
 20
0.393277
 30
0
  0
VERTEX
  8
72_ARTEK_AKFURNITURE_D2_CH_BAC
 10
0.909541
 20
0.393057
 30
0
  0
VERTEX
  8
72_ARTEK_AKFURNITURE_D2_CH_BAC
 10
0.920541
 20
0.392936
 30
0
  0
VERTEX
  8
72_ARTEK_AKFURNITURE_D2_CH_BAC
 10
0.926945
 20
0.392869
 30
0
  0
VERTEX
  8
72_ARTEK_AKFURNITURE_D2_CH_BAC
 10
0.935014
 20
0.392789
 30
0
  0
VERTEX
  8
72_ARTEK_AKFURNITURE_D2_CH_BAC
 10
0.944791
 20
0.392696
 30
0
  0
VERTEX
  8
72_ARTEK_AKFURNITURE_D2_CH_BAC
 10
0.956215
 20
0.392591
 30
0
  0
VERTEX
  8
72_ARTEK_AKFURNITURE_D2_CH_BAC
 10
0.979982
 20
0.392399
 30
0
  0
VERTEX
  8
72_ARTEK_AKFURNITURE_D2_CH_BAC
 10
1.02752
 20
0.392141
 30
0
  0
VERTEX
  8
72_ARTEK_AKFURNITURE_D2_CH_BAC
 10
1.0393
 20
0.392103
 30
0
  0
VERTEX
  8
72_ARTEK_AKFURNITURE_D2_CH_BAC
 10
1.04961
 20
0.392073
 30
0
  0
VERTEX
  8
72_ARTEK_AKFURNITURE_D2_CH_BAC
 10
1.05796
 20
0.392051
 30
0
  0
VERTEX
  8
72_ARTEK_AKFURNITURE_D2_CH_BAC
 10
1.06436
 20
0.392038
 30
0
  0
VERTEX
  8
72_ARTEK_AKFURNITURE_D2_CH_BAC
 10
1.0754
 20
0.392025
 30
0
  0
VERTEX
  8
72_ARTEK_AKFURNITURE_D2_CH_BAC
 10
1.0884
 20
0.39202
 30
0
  0
VERTEX
  8
72_ARTEK_AKFURNITURE_D2_CH_BAC
 10
1.09644
 20
0.392019
 30
0
  0
VERTEX
  8
72_ARTEK_AKFURNITURE_D2_CH_BAC
 10
1.10594
 20
0.392019
 30
0
  0
VERTEX
  8
72_ARTEK_AKFURNITURE_D2_CH_BAC
 10
1.12822
 20
0.392019
 30
0
  0
VERTEX
  8
72_ARTEK_AKFURNITURE_D2_CH_BAC
 10
1.13809
 20
0.392019
 30
0
  0
VERTEX
  8
72_ARTEK_AKFURNITURE_D2_CH_BAC
 10
1.14649
 20
0.39202
 30
0
  0
VERTEX
  8
72_ARTEK_AKFURNITURE_D2_CH_BAC
 10
1.15985
 20
0.392024
 30
0
  0
VERTEX
  8
72_ARTEK_AKFURNITURE_D2_CH_BAC
 10
1.1711
 20
0.392036
 30
0
  0
VERTEX
  8
72_ARTEK_AKFURNITURE_D2_CH_BAC
 10
1.17702
 20
0.392047
 30
0
  0
VERTEX
  8
72_ARTEK_AKFURNITURE_D2_CH_BAC
 10
1.18489
 20
0.392067
 30
0
  0
VERTEX
  8
72_ARTEK_AKFURNITURE_D2_CH_BAC
 10
1.1947
 20
0.392094
 30
0
  0
VERTEX
  8
72_ARTEK_AKFURNITURE_D2_CH_BAC
 10
1.20628
 20
0.392131
 30
0
  0
VERTEX
  8
72_ARTEK_AKFURNITURE_D2_CH_BAC
 10
1.23005
 20
0.392233
 30
0
  0
VERTEX
  8
72_ARTEK_AKFURNITURE_D2_CH_BAC
 10
1.27758
 20
0.392565
 30
0
  0
VERTEX
  8
72_ARTEK_AKFURNITURE_D2_CH_BAC
 10
1.28927
 20
0.392671
 30
0
  0
VERTEX
  8
72_ARTEK_AKFURNITURE_D2_CH_BAC
 10
1.29947
 20
0.392767
 30
0
  0
VERTEX
  8
72_ARTEK_AKFURNITURE_D2_CH_BAC
 10
1.30796
 20
0.392851
 30
0
  0
VERTEX
  8
72_ARTEK_AKFURNITURE_D2_CH_BAC
 10
1.31475
 20
0.392921
 30
0
  0
VERTEX
  8
72_ARTEK_AKFURNITURE_D2_CH_BAC
 10
1.32592
 20
0.393043
 30
0
  0
VERTEX
  8
72_ARTEK_AKFURNITURE_D2_CH_BAC
 10
1.33574
 20
0.393155
 30
0
  0
VERTEX
  8
72_ARTEK_AKFURNITURE_D2_CH_BAC
 10
1.35422
 20
0.393367
 30
0
  0
VERTEX
  8
72_ARTEK_AKFURNITURE_D2_CH_BAC
 10
1.36077
 20
0.393434
 30
0
  0
VERTEX
  8
72_ARTEK_AKFURNITURE_D2_CH_BAC
 10
1.36537
 20
0.393471
 30
0
  0
VERTEX
  8
72_ARTEK_AKFURNITURE_D2_CH_BAC
 10
1.37368
 20
0.393532
 30
0
  0
VERTEX
  8
72_ARTEK_AKFURNITURE_D2_CH_BAC
 10
1.3782
 20
0.393537
 30
0
  0
VERTEX
  8
72_ARTEK_AKFURNITURE_D2_CH_BAC
 10
1.38919
 20
0.394239
 30
0
  0
VERTEX
  8
72_ARTEK_AKFURNITURE_D2_CH_BAC
 10
1.39601
 20
0.395908
 30
0
  0
VERTEX
  8
72_ARTEK_AKFURNITURE_D2_CH_BAC
 10
1.40061
 20
0.399124
 30
0
  0
VERTEX
  8
72_ARTEK_AKFURNITURE_D2_CH_BAC
 10
1.40138
 20
0.400908
 30
0
  0
VERTEX
  8
72_ARTEK_AKFURNITURE_D2_CH_BAC
 10
1.40207
 20
0.404129
 30
0
  0
VERTEX
  8
72_ARTEK_AKFURNITURE_D2_CH_BAC
 10
1.40238
 20
0.499177
 30
0
  0
VERTEX
  8
72_ARTEK_AKFURNITURE_D2_CH_BAC
 10
1.40238
 20
0.505146
 30
0
  0
VERTEX
  8
72_ARTEK_AKFURNITURE_D2_CH_BAC
 10
1.40238
 20
0.508131
 30
0
  0
VERTEX
  8
72_ARTEK_AKFURNITURE_D2_CH_BAC
 10
1.40238
 20
0.509623
 30
0
  0
VERTEX
  8
72_ARTEK_AKFURNITURE_D2_CH_BAC
 10
1.40237
 20
0.51028
 30
0
  0
VERTEX
  8
72_ARTEK_AKFURNITURE_D2_CH_BAC
 10
1.40231
 20
0.509585
 30
0
  0
VERTEX
  8
72_ARTEK_AKFURNITURE_D2_CH_BAC
 10
1.40163
 20
0.506645
 30
0
  0
VERTEX
  8
72_ARTEK_AKFURNITURE_D2_CH_BAC
 10
1.40054
 20
0.504812
 30
0
  0
VERTEX
  8
72_ARTEK_AKFURNITURE_D2_CH_BAC
 10
1.39593
 20
0.50169
 30
0
  0
VERTEX
  8
72_ARTEK_AKFURNITURE_D2_CH_BAC
 10
1.39153
 20
0.500302
 30
0
  0
VERTEX
  8
72_ARTEK_AKFURNITURE_D2_CH_BAC
 10
1.3855
 20
0.499262
 30
0
  0
VERTEX
  8
72_ARTEK_AKFURNITURE_D2_CH_BAC
 10
1.38214
 20
0.4989
 30
0
  0
VERTEX
  8
72_ARTEK_AKFURNITURE_D2_CH_BAC
 10
1.38061
 20
0.498822
 30
0
  0
VERTEX
  8
72_ARTEK_AKFURNITURE_D2_CH_BAC
 10
1.37701
 20
0.498767
 30
0
  0
VERTEX
  8
72_ARTEK_AKFURNITURE_D2_CH_BAC
 10
1.37135
 20
0.498735
 30
0
  0
VERTEX
  8
72_ARTEK_AKFURNITURE_D2_CH_BAC
 10
1.36406
 20
0.498687
 30
0
  0
VERTEX
  8
72_ARTEK_AKFURNITURE_D2_CH_BAC
 10
1.35531
 20
0.498609
 30
0
  0
VERTEX
  8
72_ARTEK_AKFURNITURE_D2_CH_BAC
 10
1.34488
 20
0.498503
 30
0
  0
VERTEX
  8
72_ARTEK_AKFURNITURE_D2_CH_BAC
 10
1.33241
 20
0.498373
 30
0
  0
VERTEX
  8
72_ARTEK_AKFURNITURE_D2_CH_BAC
 10
1.31759
 20
0.498217
 30
0
  0
VERTEX
  8
72_ARTEK_AKFURNITURE_D2_CH_BAC
 10
1.30802
 20
0.498127
 30
0
  0
VERTEX
  8
72_ARTEK_AKFURNITURE_D2_CH_BAC
 10
1.29661
 20
0.498029
 30
0
  0
VERTEX
  8
72_ARTEK_AKFURNITURE_D2_CH_BAC
 10
1.28337
 20
0.497922
 30
0
  0
VERTEX
  8
72_ARTEK_AKFURNITURE_D2_CH_BAC
 10
1.26829
 20
0.497807
 30
0
  0
VERTEX
  8
72_ARTEK_AKFURNITURE_D2_CH_BAC
 10
1.20204
 20
0.497442
 30
0
  0
VERTEX
  8
72_ARTEK_AKFURNITURE_D2_CH_BAC
 10
1.16926
 20
0.497367
 30
0
  0
VERTEX
  8
72_ARTEK_AKFURNITURE_D2_CH_BAC
 10
1.15466
 20
0.497344
 30
0
  0
VERTEX
  8
72_ARTEK_AKFURNITURE_D2_CH_BAC
 10
1.14173
 20
0.497326
 30
0
  0
VERTEX
  8
72_ARTEK_AKFURNITURE_D2_CH_BAC
 10
1.13046
 20
0.497315
 30
0
  0
VERTEX
  8
72_ARTEK_AKFURNITURE_D2_CH_BAC
 10
1.12085
 20
0.497311
 30
0
  0
VERTEX
  8
72_ARTEK_AKFURNITURE_D2_CH_BAC
 10
1.11207
 20
0.497312
 30
0
  0
VERTEX
  8
72_ARTEK_AKFURNITURE_D2_CH_BAC
 10
1.10176
 20
0.497319
 30
0
  0
VERTEX
  8
72_ARTEK_AKFURNITURE_D2_CH_BAC
 10
1.08979
 20
0.497333
 30
0
  0
VERTEX
  8
72_ARTEK_AKFURNITURE_D2_CH_BAC
 10
1.07615
 20
0.497353
 30
0
  0
VERTEX
  8
72_ARTEK_AKFURNITURE_D2_CH_BAC
 10
1.06085
 20
0.497378
 30
0
  0
VERTEX
  8
72_ARTEK_AKFURNITURE_D2_CH_BAC
 10
1.04433
 20
0.497414
 30
0
  0
VERTEX
  8
72_ARTEK_AKFURNITURE_D2_CH_BAC
 10
0.977982
 20
0.497737
 30
0
  0
VERTEX
  8
72_ARTEK_AKFURNITURE_D2_CH_BAC
 10
0.961901
 20
0.497857
 30
0
  0
VERTEX
  8
72_ARTEK_AKFURNITURE_D2_CH_BAC
 10
0.947595
 20
0.497968
 30
0
  0
VERTEX
  8
72_ARTEK_AKFURNITURE_D2_CH_BAC
 10
0.935124
 20
0.498072
 30
0
  0
VERTEX
  8
72_ARTEK_AKFURNITURE_D2_CH_BAC
 10
0.924489
 20
0.498166
 30
0
  0
VERTEX
  8
72_ARTEK_AKFURNITURE_D2_CH_BAC
 10
0.915689
 20
0.498252
 30
0
  0
VERTEX
  8
72_ARTEK_AKFURNITURE_D2_CH_BAC
 10
0.908345
 20
0.49833
 30
0
  0
VERTEX
  8
72_ARTEK_AKFURNITURE_D2_CH_BAC
 10
0.895275
 20
0.498468
 30
0
  0
VERTEX
  8
72_ARTEK_AKFURNITURE_D2_CH_BAC
 10
0.884263
 20
0.498581
 30
0
  0
VERTEX
  8
72_ARTEK_AKFURNITURE_D2_CH_BAC
 10
0.875077
 20
0.498667
 30
0
  0
VERTEX
  8
72_ARTEK_AKFURNITURE_D2_CH_BAC
 10
0.867367
 20
0.498724
 30
0
  0
VERTEX
  8
72_ARTEK_AKFURNITURE_D2_CH_BAC
 10
0.861177
 20
0.498756
 30
0
  0
VERTEX
  8
72_ARTEK_AKFURNITURE_D2_CH_BAC
 10
0.856973
 20
0.498803
 30
0
  0
VERTEX
  8
72_ARTEK_AKFURNITURE_D2_CH_BAC
 10
0.854871
 20
0.498875
 30
0
  0
VERTEX
  8
72_ARTEK_AKFURNITURE_D2_CH_BAC
 10
0.853164
 20
0.499049
 30
0
  0
VERTEX
  8
72_ARTEK_AKFURNITURE_D2_CH_BAC
 10
0.849881
 20
0.499448
 30
0
  0
VERTEX
  8
72_ARTEK_AKFURNITURE_D2_CH_BAC
 10
0.844097
 20
0.500579
 30
0
  0
VERTEX
  8
72_ARTEK_AKFURNITURE_D2_CH_BAC
 10
0.840162
 20
0.50199
 30
0
  0
VERTEX
  8
72_ARTEK_AKFURNITURE_D2_CH_BAC
 10
0.837702
 20
0.50347
 30
0
  0
SEQEND
  0
POLYLINE
  8
72_ARTEK_AKFURNITURE_D2_CH_BAC
 66
     1
 70
     0
 10
0.0
 20
0.0
 30
0.0
  0
VERTEX
  8
72_ARTEK_AKFURNITURE_D2_CH_BAC
 10
0.837695
 20
0.603191
 30
0
  0
VERTEX
  8
72_ARTEK_AKFURNITURE_D2_CH_BAC
 10
0.837378
 20
0.54697
 30
0
  0
VERTEX
  8
72_ARTEK_AKFURNITURE_D2_CH_BAC
 10
0.837378
 20
0.518782
 30
0
  0
VERTEX
  8
72_ARTEK_AKFURNITURE_D2_CH_BAC
 10
0.837378
 20
0.504688
 30
0
  0
VERTEX
  8
72_ARTEK_AKFURNITURE_D2_CH_BAC
 10
0.838012
 20
0.503243
 30
0
  0
VERTEX
  8
72_ARTEK_AKFURNITURE_D2_CH_BAC
 10
0.839555
 20
0.502278
 30
0
  0
VERTEX
  8
72_ARTEK_AKFURNITURE_D2_CH_BAC
 10
0.844621
 20
0.500443
 30
0
  0
VERTEX
  8
72_ARTEK_AKFURNITURE_D2_CH_BAC
 10
0.852553
 20
0.499112
 30
0
  0
VERTEX
  8
72_ARTEK_AKFURNITURE_D2_CH_BAC
 10
0.854771
 20
0.498884
 30
0
  0
VERTEX
  8
72_ARTEK_AKFURNITURE_D2_CH_BAC
 10
0.857648
 20
0.498792
 30
0
  0
VERTEX
  8
72_ARTEK_AKFURNITURE_D2_CH_BAC
 10
0.864111
 20
0.498742
 30
0
  0
VERTEX
  8
72_ARTEK_AKFURNITURE_D2_CH_BAC
 10
0.873537
 20
0.49868
 30
0
  0
VERTEX
  8
72_ARTEK_AKFURNITURE_D2_CH_BAC
 10
0.885494
 20
0.498568
 30
0
  0
VERTEX
  8
72_ARTEK_AKFURNITURE_D2_CH_BAC
 10
0.900627
 20
0.498412
 30
0
  0
VERTEX
  8
72_ARTEK_AKFURNITURE_D2_CH_BAC
 10
0.909512
 20
0.498318
 30
0
  0
VERTEX
  8
72_ARTEK_AKFURNITURE_D2_CH_BAC
 10
0.919611
 20
0.498213
 30
0
  0
VERTEX
  8
72_ARTEK_AKFURNITURE_D2_CH_BAC
 10
0.932613
 20
0.498093
 30
0
  0
VERTEX
  8
72_ARTEK_AKFURNITURE_D2_CH_BAC
 10
0.948751
 20
0.497959
 30
0
  0
VERTEX
  8
72_ARTEK_AKFURNITURE_D2_CH_BAC
 10
0.968024
 20
0.49781
 30
0
  0
VERTEX
  8
72_ARTEK_AKFURNITURE_D2_CH_BAC
 10
0.989592
 20
0.497659
 30
0
  0
VERTEX
  8
72_ARTEK_AKFURNITURE_D2_CH_BAC
 10
1.03295
 20
0.497448
 30
0
  0
VERTEX
  8
72_ARTEK_AKFURNITURE_D2_CH_BAC
 10
1.05463
 20
0.49739
 30
0
  0
VERTEX
  8
72_ARTEK_AKFURNITURE_D2_CH_BAC
 10
1.07511
 20
0.497354
 30
0
  0
VERTEX
  8
72_ARTEK_AKFURNITURE_D2_CH_BAC
 10
1.09275
 20
0.497329
 30
0
  0
VERTEX
  8
72_ARTEK_AKFURNITURE_D2_CH_BAC
 10
1.10756
 20
0.497315
 30
0
  0
VERTEX
  8
72_ARTEK_AKFURNITURE_D2_CH_BAC
 10
1.13211
 20
0.497317
 30
0
  0
VERTEX
  8
72_ARTEK_AKFURNITURE_D2_CH_BAC
 10
1.14752
 20
0.497334
 30
0
  0
VERTEX
  8
72_ARTEK_AKFURNITURE_D2_CH_BAC
 10
1.16577
 20
0.497361
 30
0
  0
VERTEX
  8
72_ARTEK_AKFURNITURE_D2_CH_BAC
 10
1.20842
 20
0.497465
 30
0
  0
VERTEX
  8
72_ARTEK_AKFURNITURE_D2_CH_BAC
 10
1.25178
 20
0.497689
 30
0
  0
VERTEX
  8
72_ARTEK_AKFURNITURE_D2_CH_BAC
 10
1.27309
 20
0.497843
 30
0
  0
VERTEX
  8
72_ARTEK_AKFURNITURE_D2_CH_BAC
 10
1.2917
 20
0.497989
 30
0
  0
VERTEX
  8
72_ARTEK_AKFURNITURE_D2_CH_BAC
 10
1.30717
 20
0.49812
 30
0
  0
VERTEX
  8
72_ARTEK_AKFURNITURE_D2_CH_BAC
 10
1.31951
 20
0.498236
 30
0
  0
VERTEX
  8
72_ARTEK_AKFURNITURE_D2_CH_BAC
 10
1.3379
 20
0.498431
 30
0
  0
VERTEX
  8
72_ARTEK_AKFURNITURE_D2_CH_BAC
 10
1.35266
 20
0.498583
 30
0
  0
VERTEX
  8
72_ARTEK_AKFURNITURE_D2_CH_BAC
 10
1.36434
 20
0.498689
 30
0
  0
VERTEX
  8
72_ARTEK_AKFURNITURE_D2_CH_BAC
 10
1.3735
 20
0.498745
 30
0
  0
VERTEX
  8
72_ARTEK_AKFURNITURE_D2_CH_BAC
 10
1.37958
 20
0.4988
 30
0
  0
VERTEX
  8
72_ARTEK_AKFURNITURE_D2_CH_BAC
 10
1.3821
 20
0.498897
 30
0
  0
VERTEX
  8
72_ARTEK_AKFURNITURE_D2_CH_BAC
 10
1.38321
 20
0.49901
 30
0
  0
VERTEX
  8
72_ARTEK_AKFURNITURE_D2_CH_BAC
 10
1.3854
 20
0.499249
 30
0
  0
VERTEX
  8
72_ARTEK_AKFURNITURE_D2_CH_BAC
 10
1.38951
 20
0.499853
 30
0
  0
VERTEX
  8
72_ARTEK_AKFURNITURE_D2_CH_BAC
 10
1.39576
 20
0.501614
 30
0
  0
VERTEX
  8
72_ARTEK_AKFURNITURE_D2_CH_BAC
 10
1.39914
 20
0.503533
 30
0
  0
VERTEX
  8
72_ARTEK_AKFURNITURE_D2_CH_BAC
 10
1.40124
 20
0.505885
 30
0
  0
VERTEX
  8
72_ARTEK_AKFURNITURE_D2_CH_BAC
 10
1.40224
 20
0.50894
 30
0
  0
VERTEX
  8
72_ARTEK_AKFURNITURE_D2_CH_BAC
 10
1.40238
 20
0.516538
 30
0
  0
VERTEX
  8
72_ARTEK_AKFURNITURE_D2_CH_BAC
 10
1.40238
 20
0.578957
 30
0
  0
VERTEX
  8
72_ARTEK_AKFURNITURE_D2_CH_BAC
 10
1.40238
 20
0.594562
 30
0
  0
VERTEX
  8
72_ARTEK_AKFURNITURE_D2_CH_BAC
 10
1.4021
 20
0.596913
 30
0
  0
VERTEX
  8
72_ARTEK_AKFURNITURE_D2_CH_BAC
 10
1.40157
 20
0.598085
 30
0
  0
VERTEX
  8
72_ARTEK_AKFURNITURE_D2_CH_BAC
 10
1.4013
 20
0.599582
 30
0
  0
VERTEX
  8
72_ARTEK_AKFURNITURE_D2_CH_BAC
 10
1.40097
 20
0.601238
 30
0
  0
VERTEX
  8
72_ARTEK_AKFURNITURE_D2_CH_BAC
 10
1.39876
 20
0.603419
 30
0
  0
VERTEX
  8
72_ARTEK_AKFURNITURE_D2_CH_BAC
 10
1.39542
 20
0.605249
 30
0
  0
VERTEX
  8
72_ARTEK_AKFURNITURE_D2_CH_BAC
 10
1.39259
 20
0.606177
 30
0
  0
VERTEX
  8
72_ARTEK_AKFURNITURE_D2_CH_BAC
 10
1.3874
 20
0.607257
 30
0
  0
VERTEX
  8
72_ARTEK_AKFURNITURE_D2_CH_BAC
 10
1.38336
 20
0.607776
 30
0
  0
VERTEX
  8
72_ARTEK_AKFURNITURE_D2_CH_BAC
 10
1.37792
 20
0.608041
 30
0
  0
VERTEX
  8
72_ARTEK_AKFURNITURE_D2_CH_BAC
 10
1.37411
 20
0.608045
 30
0
  0
VERTEX
  8
72_ARTEK_AKFURNITURE_D2_CH_BAC
 10
1.3673
 20
0.608092
 30
0
  0
VERTEX
  8
72_ARTEK_AKFURNITURE_D2_CH_BAC
 10
1.35912
 20
0.608159
 30
0
  0
VERTEX
  8
72_ARTEK_AKFURNITURE_D2_CH_BAC
 10
1.35293
 20
0.608224
 30
0
  0
VERTEX
  8
72_ARTEK_AKFURNITURE_D2_CH_BAC
 10
1.34417
 20
0.608323
 30
0
  0
VERTEX
  8
72_ARTEK_AKFURNITURE_D2_CH_BAC
 10
1.33803
 20
0.608392
 30
0
  0
VERTEX
  8
72_ARTEK_AKFURNITURE_D2_CH_BAC
 10
1.33062
 20
0.608474
 30
0
  0
VERTEX
  8
72_ARTEK_AKFURNITURE_D2_CH_BAC
 10
1.31261
 20
0.608669
 30
0
  0
VERTEX
  8
72_ARTEK_AKFURNITURE_D2_CH_BAC
 10
1.27282
 20
0.609045
 30
0
  0
VERTEX
  8
72_ARTEK_AKFURNITURE_D2_CH_BAC
 10
1.19099
 20
0.609489
 30
0
  0
VERTEX
  8
72_ARTEK_AKFURNITURE_D2_CH_BAC
 10
1.02734
 20
0.609433
 30
0
  0
VERTEX
  8
72_ARTEK_AKFURNITURE_D2_CH_BAC
 10
0.945582
 20
0.608881
 30
0
  0
VERTEX
  8
72_ARTEK_AKFURNITURE_D2_CH_BAC
 10
0.926031
 20
0.608688
 30
0
  0
VERTEX
  8
72_ARTEK_AKFURNITURE_D2_CH_BAC
 10
0.907765
 20
0.608492
 30
0
  0
VERTEX
  8
72_ARTEK_AKFURNITURE_D2_CH_BAC
 10
0.900103
 20
0.608407
 30
0
  0
VERTEX
  8
72_ARTEK_AKFURNITURE_D2_CH_BAC
 10
0.893707
 20
0.608336
 30
0
  0
VERTEX
  8
72_ARTEK_AKFURNITURE_D2_CH_BAC
 10
0.884552
 20
0.608232
 30
0
  0
VERTEX
  8
72_ARTEK_AKFURNITURE_D2_CH_BAC
 10
0.878156
 20
0.608164
 30
0
  0
VERTEX
  8
72_ARTEK_AKFURNITURE_D2_CH_BAC
 10
0.873748
 20
0.608126
 30
0
  0
VERTEX
  8
72_ARTEK_AKFURNITURE_D2_CH_BAC
 10
0.865978
 20
0.608065
 30
0
  0
VERTEX
  8
72_ARTEK_AKFURNITURE_D2_CH_BAC
 10
0.860811
 20
0.608041
 30
0
  0
VERTEX
  8
72_ARTEK_AKFURNITURE_D2_CH_BAC
 10
0.857223
 20
0.60804
 30
0
  0
VERTEX
  8
72_ARTEK_AKFURNITURE_D2_CH_BAC
 10
0.848462
 20
0.607127
 30
0
  0
VERTEX
  8
72_ARTEK_AKFURNITURE_D2_CH_BAC
 10
0.843395
 20
0.605948
 30
0
  0
VERTEX
  8
72_ARTEK_AKFURNITURE_D2_CH_BAC
 10
0.840875
 20
0.605048
 30
0
  0
VERTEX
  8
72_ARTEK_AKFURNITURE_D2_CH_BAC
 10
0.837695
 20
0.603191
 30
0
  0
SEQEND
  0
POLYLINE
  8
72_ARTEK_AKFURNITURE_D2_CH_BAC
 66
     1
 70
     0
 10
0.0
 20
0.0
 30
0.0
  0
VERTEX
  8
72_ARTEK_AKFURNITURE_D2_CH_BAC
 10
0.837378
 20
0.503718
 30
0
  0
VERTEX
  8
72_ARTEK_AKFURNITURE_D2_CH_BAC
 10
0.837378
 20
0.570609
 30
0
  0
VERTEX
  8
72_ARTEK_AKFURNITURE_D2_CH_BAC
 10
0.837378
 20
0.587332
 30
0
  0
VERTEX
  8
72_ARTEK_AKFURNITURE_D2_CH_BAC
 10
0.837378
 20
0.595693
 30
0
  0
VERTEX
  8
72_ARTEK_AKFURNITURE_D2_CH_BAC
 10
0.837378
 20
0.599874
 30
0
  0
VERTEX
  8
72_ARTEK_AKFURNITURE_D2_CH_BAC
 10
0.837378
 20
0.601965
 30
0
  0
VERTEX
  8
72_ARTEK_AKFURNITURE_D2_CH_BAC
 10
0.836483
 20
0.60361
 30
0
  0
VERTEX
  8
72_ARTEK_AKFURNITURE_D2_CH_BAC
 10
0.83159
 20
0.605872
 30
0
  0
VERTEX
  8
72_ARTEK_AKFURNITURE_D2_CH_BAC
 10
0.825647
 20
0.607221
 30
0
  0
VERTEX
  8
72_ARTEK_AKFURNITURE_D2_CH_BAC
 10
0.82059
 20
0.60786
 30
0
  0
VERTEX
  8
72_ARTEK_AKFURNITURE_D2_CH_BAC
 10
0.817302
 20
0.608041
 30
0
  0
VERTEX
  8
72_ARTEK_AKFURNITURE_D2_CH_BAC
 10
0.81275
 20
0.608042
 30
0
  0
VERTEX
  8
72_ARTEK_AKFURNITURE_D2_CH_BAC
 10
0.809228
 20
0.608061
 30
0
  0
VERTEX
  8
72_ARTEK_AKFURNITURE_D2_CH_BAC
 10
0.804446
 20
0.608099
 30
0
  0
VERTEX
  8
72_ARTEK_AKFURNITURE_D2_CH_BAC
 10
0.799572
 20
0.608137
 30
0
  0
VERTEX
  8
72_ARTEK_AKFURNITURE_D2_CH_BAC
 10
0.792925
 20
0.608202
 30
0
  0
VERTEX
  8
72_ARTEK_AKFURNITURE_D2_CH_BAC
 10
0.788386
 20
0.608253
 30
0
  0
VERTEX
  8
72_ARTEK_AKFURNITURE_D2_CH_BAC
 10
0.782614
 20
0.608318
 30
0
  0
VERTEX
  8
72_ARTEK_AKFURNITURE_D2_CH_BAC
 10
0.774887
 20
0.608404
 30
0
  0
VERTEX
  8
72_ARTEK_AKFURNITURE_D2_CH_BAC
 10
0.765193
 20
0.608511
 30
0
  0
VERTEX
  8
72_ARTEK_AKFURNITURE_D2_CH_BAC
 10
0.741936
 20
0.608757
 30
0
  0
VERTEX
  8
72_ARTEK_AKFURNITURE_D2_CH_BAC
 10
0.716969
 20
0.608992
 30
0
  0
VERTEX
  8
72_ARTEK_AKFURNITURE_D2_CH_BAC
 10
0.614951
 20
0.609519
 30
0
  0
VERTEX
  8
72_ARTEK_AKFURNITURE_D2_CH_BAC
 10
0.410916
 20
0.609117
 30
0
  0
VERTEX
  8
72_ARTEK_AKFURNITURE_D2_CH_BAC
 10
0.385451
 20
0.608899
 30
0
  0
VERTEX
  8
72_ARTEK_AKFURNITURE_D2_CH_BAC
 10
0.361115
 20
0.608658
 30
0
  0
VERTEX
  8
72_ARTEK_AKFURNITURE_D2_CH_BAC
 10
0.349587
 20
0.608534
 30
0
  0
VERTEX
  8
72_ARTEK_AKFURNITURE_D2_CH_BAC
 10
0.339526
 20
0.608423
 30
0
  0
VERTEX
  8
72_ARTEK_AKFURNITURE_D2_CH_BAC
 10
0.331433
 20
0.608333
 30
0
  0
VERTEX
  8
72_ARTEK_AKFURNITURE_D2_CH_BAC
 10
0.325306
 20
0.608263
 30
0
  0
VERTEX
  8
72_ARTEK_AKFURNITURE_D2_CH_BAC
 10
0.316735
 20
0.60817
 30
0
  0
VERTEX
  8
72_ARTEK_AKFURNITURE_D2_CH_BAC
 10
0.311198
 20
0.608122
 30
0
  0
VERTEX
  8
72_ARTEK_AKFURNITURE_D2_CH_BAC
 10
0.301899
 20
0.608051
 30
0
  0
VERTEX
  8
72_ARTEK_AKFURNITURE_D2_CH_BAC
 10
0.296782
 20
0.608041
 30
0
  0
VERTEX
  8
72_ARTEK_AKFURNITURE_D2_CH_BAC
 10
0.292944
 20
0.607944
 30
0
  0
VERTEX
  8
72_ARTEK_AKFURNITURE_D2_CH_BAC
 10
0.287835
 20
0.607327
 30
0
  0
VERTEX
  8
72_ARTEK_AKFURNITURE_D2_CH_BAC
 10
0.281694
 20
0.606043
 30
0
  0
VERTEX
  8
72_ARTEK_AKFURNITURE_D2_CH_BAC
 10
0.278598
 20
0.604919
 30
0
  0
VERTEX
  8
72_ARTEK_AKFURNITURE_D2_CH_BAC
 10
0.275378
 20
0.602275
 30
0
  0
VERTEX
  8
72_ARTEK_AKFURNITURE_D2_CH_BAC
 10
0.275378
 20
0.598094
 30
0
  0
VERTEX
  8
72_ARTEK_AKFURNITURE_D2_CH_BAC
 10
0.275378
 20
0.589732
 30
0
  0
VERTEX
  8
72_ARTEK_AKFURNITURE_D2_CH_BAC
 10
0.275378
 20
0.57301
 30
0
  0
VERTEX
  8
72_ARTEK_AKFURNITURE_D2_CH_BAC
 10
0.275378
 20
0.539564
 30
0
  0
VERTEX
  8
72_ARTEK_AKFURNITURE_D2_CH_BAC
 10
0.275378
 20
0.506118
 30
0
  0
VERTEX
  8
72_ARTEK_AKFURNITURE_D2_CH_BAC
 10
0.275378
 20
0.504028
 30
0
  0
VERTEX
  8
72_ARTEK_AKFURNITURE_D2_CH_BAC
 10
0.276854
 20
0.502696
 30
0
  0
VERTEX
  8
72_ARTEK_AKFURNITURE_D2_CH_BAC
 10
0.279043
 20
0.501591
 30
0
  0
VERTEX
  8
72_ARTEK_AKFURNITURE_D2_CH_BAC
 10
0.282398
 20
0.500499
 30
0
  0
VERTEX
  8
72_ARTEK_AKFURNITURE_D2_CH_BAC
 10
0.291917
 20
0.498972
 30
0
  0
VERTEX
  8
72_ARTEK_AKFURNITURE_D2_CH_BAC
 10
0.293532
 20
0.498841
 30
0
  0
VERTEX
  8
72_ARTEK_AKFURNITURE_D2_CH_BAC
 10
0.295692
 20
0.498791
 30
0
  0
VERTEX
  8
72_ARTEK_AKFURNITURE_D2_CH_BAC
 10
0.299116
 20
0.498757
 30
0
  0
VERTEX
  8
72_ARTEK_AKFURNITURE_D2_CH_BAC
 10
0.309341
 20
0.498697
 30
0
  0
VERTEX
  8
72_ARTEK_AKFURNITURE_D2_CH_BAC
 10
0.32317
 20
0.498572
 30
0
  0
VERTEX
  8
72_ARTEK_AKFURNITURE_D2_CH_BAC
 10
0.331674
 20
0.498484
 30
0
  0
VERTEX
  8
72_ARTEK_AKFURNITURE_D2_CH_BAC
 10
0.341414
 20
0.498383
 30
0
  0
VERTEX
  8
72_ARTEK_AKFURNITURE_D2_CH_BAC
 10
0.352395
 20
0.498266
 30
0
  0
VERTEX
  8
72_ARTEK_AKFURNITURE_D2_CH_BAC
 10
0.36635
 20
0.498131
 30
0
  0
VERTEX
  8
72_ARTEK_AKFURNITURE_D2_CH_BAC
 10
0.384719
 20
0.497975
 30
0
  0
VERTEX
  8
72_ARTEK_AKFURNITURE_D2_CH_BAC
 10
0.407503
 20
0.497799
 30
0
  0
VERTEX
  8
72_ARTEK_AKFURNITURE_D2_CH_BAC
 10
0.45889
 20
0.497494
 30
0
  0
VERTEX
  8
72_ARTEK_AKFURNITURE_D2_CH_BAC
 10
0.509567
 20
0.49736
 30
0
  0
VERTEX
  8
72_ARTEK_AKFURNITURE_D2_CH_BAC
 10
0.530806
 20
0.497329
 30
0
  0
VERTEX
  8
72_ARTEK_AKFURNITURE_D2_CH_BAC
 10
0.548043
 20
0.497313
 30
0
  0
VERTEX
  8
72_ARTEK_AKFURNITURE_D2_CH_BAC
 10
0.56194
 20
0.497312
 30
0
  0
VERTEX
  8
72_ARTEK_AKFURNITURE_D2_CH_BAC
 10
0.578431
 20
0.497325
 30
0
  0
VERTEX
  8
72_ARTEK_AKFURNITURE_D2_CH_BAC
 10
0.598924
 20
0.497353
 30
0
  0
VERTEX
  8
72_ARTEK_AKFURNITURE_D2_CH_BAC
 10
0.623345
 20
0.497397
 30
0
  0
VERTEX
  8
72_ARTEK_AKFURNITURE_D2_CH_BAC
 10
0.674792
 20
0.497597
 30
0
  0
VERTEX
  8
72_ARTEK_AKFURNITURE_D2_CH_BAC
 10
0.700516
 20
0.497764
 30
0
  0
VERTEX
  8
72_ARTEK_AKFURNITURE_D2_CH_BAC
 10
0.724122
 20
0.497944
 30
0
  0
VERTEX
  8
72_ARTEK_AKFURNITURE_D2_CH_BAC
 10
0.743315
 20
0.498104
 30
0
  0
VERTEX
  8
72_ARTEK_AKFURNITURE_D2_CH_BAC
 10
0.758093
 20
0.498242
 30
0
  0
VERTEX
  8
72_ARTEK_AKFURNITURE_D2_CH_BAC
 10
0.769388
 20
0.498362
 30
0
  0
VERTEX
  8
72_ARTEK_AKFURNITURE_D2_CH_BAC
 10
0.779359
 20
0.498467
 30
0
  0
VERTEX
  8
72_ARTEK_AKFURNITURE_D2_CH_BAC
 10
0.788093
 20
0.498557
 30
0
  0
VERTEX
  8
72_ARTEK_AKFURNITURE_D2_CH_BAC
 10
0.795645
 20
0.498631
 30
0
  0
VERTEX
  8
72_ARTEK_AKFURNITURE_D2_CH_BAC
 10
0.808022
 20
0.498728
 30
0
  0
VERTEX
  8
72_ARTEK_AKFURNITURE_D2_CH_BAC
 10
0.812861
 20
0.498752
 30
0
  0
VERTEX
  8
72_ARTEK_AKFURNITURE_D2_CH_BAC
 10
0.81652
 20
0.498784
 30
0
  0
VERTEX
  8
72_ARTEK_AKFURNITURE_D2_CH_BAC
 10
0.818916
 20
0.49883
 30
0
  0
VERTEX
  8
72_ARTEK_AKFURNITURE_D2_CH_BAC
 10
0.820058
 20
0.498892
 30
0
  0
VERTEX
  8
72_ARTEK_AKFURNITURE_D2_CH_BAC
 10
0.82519
 20
0.499491
 30
0
  0
VERTEX
  8
72_ARTEK_AKFURNITURE_D2_CH_BAC
 10
0.833309
 20
0.501429
 30
0
  0
VERTEX
  8
72_ARTEK_AKFURNITURE_D2_CH_BAC
 10
0.837378
 20
0.503718
 30
0
  0
SEQEND
  0
POLYLINE
  8
72_ARTEK_AKFURNITURE_D2_CH_BAC
 66
     1
 70
     0
 10
0.0
 20
0.0
 30
0.0
  0
VERTEX
  8
72_ARTEK_AKFURNITURE_D2_CH_BAC
 10
0.837378
 20
0.39775
 30
0
  0
VERTEX
  8
72_ARTEK_AKFURNITURE_D2_CH_BAC
 10
0.837378
 20
0.488007
 30
0
  0
VERTEX
  8
72_ARTEK_AKFURNITURE_D2_CH_BAC
 10
0.837378
 20
0.49929
 30
0
  0
VERTEX
  8
72_ARTEK_AKFURNITURE_D2_CH_BAC
 10
0.837378
 20
0.50211
 30
0
  0
VERTEX
  8
72_ARTEK_AKFURNITURE_D2_CH_BAC
 10
0.837378
 20
0.50352
 30
0
  0
VERTEX
  8
72_ARTEK_AKFURNITURE_D2_CH_BAC
 10
0.836389
 20
0.503006
 30
0
  0
VERTEX
  8
72_ARTEK_AKFURNITURE_D2_CH_BAC
 10
0.833508
 20
0.501506
 30
0
  0
VERTEX
  8
72_ARTEK_AKFURNITURE_D2_CH_BAC
 10
0.828544
 20
0.50008
 30
0
  0
VERTEX
  8
72_ARTEK_AKFURNITURE_D2_CH_BAC
 10
0.822015
 20
0.499093
 30
0
  0
VERTEX
  8
72_ARTEK_AKFURNITURE_D2_CH_BAC
 10
0.820239
 20
0.498911
 30
0
  0
VERTEX
  8
72_ARTEK_AKFURNITURE_D2_CH_BAC
 10
0.818783
 20
0.498826
 30
0
  0
VERTEX
  8
72_ARTEK_AKFURNITURE_D2_CH_BAC
 10
0.815128
 20
0.498768
 30
0
  0
VERTEX
  8
72_ARTEK_AKFURNITURE_D2_CH_BAC
 10
0.809208
 20
0.498735
 30
0
  0
VERTEX
  8
72_ARTEK_AKFURNITURE_D2_CH_BAC
 10
0.801518
 20
0.498683
 30
0
  0
VERTEX
  8
72_ARTEK_AKFURNITURE_D2_CH_BAC
 10
0.792217
 20
0.498598
 30
0
  0
VERTEX
  8
72_ARTEK_AKFURNITURE_D2_CH_BAC
 10
0.781022
 20
0.498484
 30
0
  0
VERTEX
  8
72_ARTEK_AKFURNITURE_D2_CH_BAC
 10
0.767577
 20
0.498343
 30
0
  0
VERTEX
  8
72_ARTEK_AKFURNITURE_D2_CH_BAC
 10
0.76
 20
0.498262
 30
0
  0
VERTEX
  8
72_ARTEK_AKFURNITURE_D2_CH_BAC
 10
0.750979
 20
0.498173
 30
0
  0
VERTEX
  8
72_ARTEK_AKFURNITURE_D2_CH_BAC
 10
0.739949
 20
0.498074
 30
0
  0
VERTEX
  8
72_ARTEK_AKFURNITURE_D2_CH_BAC
 10
0.726909
 20
0.497966
 30
0
  0
VERTEX
  8
72_ARTEK_AKFURNITURE_D2_CH_BAC
 10
0.71186
 20
0.497849
 30
0
  0
VERTEX
  8
72_ARTEK_AKFURNITURE_D2_CH_BAC
 10
0.694927
 20
0.497724
 30
0
  0
VERTEX
  8
72_ARTEK_AKFURNITURE_D2_CH_BAC
 10
0.625508
 20
0.497402
 30
0
  0
VERTEX
  8
72_ARTEK_AKFURNITURE_D2_CH_BAC
 10
0.60847
 20
0.497369
 30
0
  0
VERTEX
  8
72_ARTEK_AKFURNITURE_D2_CH_BAC
 10
0.593099
 20
0.497344
 30
0
  0
VERTEX
  8
72_ARTEK_AKFURNITURE_D2_CH_BAC
 10
0.57955
 20
0.497326
 30
0
  0
VERTEX
  8
72_ARTEK_AKFURNITURE_D2_CH_BAC
 10
0.567823
 20
0.497315
 30
0
  0
VERTEX
  8
72_ARTEK_AKFURNITURE_D2_CH_BAC
 10
0.548591
 20
0.497313
 30
0
  0
VERTEX
  8
72_ARTEK_AKFURNITURE_D2_CH_BAC
 10
0.537499
 20
0.497322
 30
0
  0
VERTEX
  8
72_ARTEK_AKFURNITURE_D2_CH_BAC
 10
0.524585
 20
0.497337
 30
0
  0
VERTEX
  8
72_ARTEK_AKFURNITURE_D2_CH_BAC
 10
0.509849
 20
0.49736
 30
0
  0
VERTEX
  8
72_ARTEK_AKFURNITURE_D2_CH_BAC
 10
0.493295
 20
0.497389
 30
0
  0
VERTEX
  8
72_ARTEK_AKFURNITURE_D2_CH_BAC
 10
0.458586
 20
0.497496
 30
0
  0
VERTEX
  8
72_ARTEK_AKFURNITURE_D2_CH_BAC
 10
0.423877
 20
0.497683
 30
0
  0
VERTEX
  8
72_ARTEK_AKFURNITURE_D2_CH_BAC
 10
0.406612
 20
0.497806
 30
0
  0
VERTEX
  8
72_ARTEK_AKFURNITURE_D2_CH_BAC
 10
0.390863
 20
0.497927
 30
0
  0
VERTEX
  8
72_ARTEK_AKFURNITURE_D2_CH_BAC
 10
0.377123
 20
0.498038
 30
0
  0
VERTEX
  8
72_ARTEK_AKFURNITURE_D2_CH_BAC
 10
0.365392
 20
0.49814
 30
0
  0
VERTEX
  8
72_ARTEK_AKFURNITURE_D2_CH_BAC
 10
0.355671
 20
0.498232
 30
0
  0
VERTEX
  8
72_ARTEK_AKFURNITURE_D2_CH_BAC
 10
0.347752
 20
0.498315
 30
0
  0
VERTEX
  8
72_ARTEK_AKFURNITURE_D2_CH_BAC
 10
0.333914
 20
0.498461
 30
0
  0
VERTEX
  8
72_ARTEK_AKFURNITURE_D2_CH_BAC
 10
0.322328
 20
0.49858
 30
0
  0
VERTEX
  8
72_ARTEK_AKFURNITURE_D2_CH_BAC
 10
0.312742
 20
0.49867
 30
0
  0
VERTEX
  8
72_ARTEK_AKFURNITURE_D2_CH_BAC
 10
0.304771
 20
0.498728
 30
0
  0
VERTEX
  8
72_ARTEK_AKFURNITURE_D2_CH_BAC
 10
0.2985
 20
0.498761
 30
0
  0
VERTEX
  8
72_ARTEK_AKFURNITURE_D2_CH_BAC
 10
0.294444
 20
0.498814
 30
0
  0
VERTEX
  8
72_ARTEK_AKFURNITURE_D2_CH_BAC
 10
0.291783
 20
0.498986
 30
0
  0
VERTEX
  8
72_ARTEK_AKFURNITURE_D2_CH_BAC
 10
0.285067
 20
0.499889
 30
0
  0
VERTEX
  8
72_ARTEK_AKFURNITURE_D2_CH_BAC
 10
0.27984
 20
0.501289
 30
0
  0
VERTEX
  8
72_ARTEK_AKFURNITURE_D2_CH_BAC
 10
0.276722
 20
0.50278
 30
0
  0
VERTEX
  8
72_ARTEK_AKFURNITURE_D2_CH_BAC
 10
0.27555
 20
0.503586
 30
0
  0
VERTEX
  8
72_ARTEK_AKFURNITURE_D2_CH_BAC
 10
0.275378
 20
0.502524
 30
0
  0
VERTEX
  8
72_ARTEK_AKFURNITURE_D2_CH_BAC
 10
0.275378
 20
0.499704
 30
0
  0
VERTEX
  8
72_ARTEK_AKFURNITURE_D2_CH_BAC
 10
0.275378
 20
0.494063
 30
0
  0
VERTEX
  8
72_ARTEK_AKFURNITURE_D2_CH_BAC
 10
0.275378
 20
0.48278
 30
0
  0
VERTEX
  8
72_ARTEK_AKFURNITURE_D2_CH_BAC
 10
0.275378
 20
0.460216
 30
0
  0
VERTEX
  8
72_ARTEK_AKFURNITURE_D2_CH_BAC
 10
0.275378
 20
0.415087
 30
0
  0
VERTEX
  8
72_ARTEK_AKFURNITURE_D2_CH_BAC
 10
0.275378
 20
0.403805
 30
0
  0
VERTEX
  8
72_ARTEK_AKFURNITURE_D2_CH_BAC
 10
0.275378
 20
0.398164
 30
0
  0
VERTEX
  8
72_ARTEK_AKFURNITURE_D2_CH_BAC
 10
0.278692
 20
0.395927
 30
0
  0
VERTEX
  8
72_ARTEK_AKFURNITURE_D2_CH_BAC
 10
0.283434
 20
0.394609
 30
0
  0
VERTEX
  8
72_ARTEK_AKFURNITURE_D2_CH_BAC
 10
0.286551
 20
0.394109
 30
0
  0
VERTEX
  8
72_ARTEK_AKFURNITURE_D2_CH_BAC
 10
0.291085
 20
0.393719
 30
0
  0
VERTEX
  8
72_ARTEK_AKFURNITURE_D2_CH_BAC
 10
0.295342
 20
0.393539
 30
0
  0
VERTEX
  8
72_ARTEK_AKFURNITURE_D2_CH_BAC
 10
0.298473
 20
0.393537
 30
0
  0
VERTEX
  8
72_ARTEK_AKFURNITURE_D2_CH_BAC
 10
0.302449
 20
0.393525
 30
0
  0
VERTEX
  8
72_ARTEK_AKFURNITURE_D2_CH_BAC
 10
0.308941
 20
0.393474
 30
0
  0
VERTEX
  8
72_ARTEK_AKFURNITURE_D2_CH_BAC
 10
0.316243
 20
0.393412
 30
0
  0
VERTEX
  8
72_ARTEK_AKFURNITURE_D2_CH_BAC
 10
0.3217
 20
0.393354
 30
0
  0
VERTEX
  8
72_ARTEK_AKFURNITURE_D2_CH_BAC
 10
0.328539
 20
0.393276
 30
0
  0
VERTEX
  8
72_ARTEK_AKFURNITURE_D2_CH_BAC
 10
0.342637
 20
0.393113
 30
0
  0
VERTEX
  8
72_ARTEK_AKFURNITURE_D2_CH_BAC
 10
0.358545
 20
0.392936
 30
0
  0
VERTEX
  8
72_ARTEK_AKFURNITURE_D2_CH_BAC
 10
0.368716
 20
0.392831
 30
0
  0
VERTEX
  8
72_ARTEK_AKFURNITURE_D2_CH_BAC
 10
0.382653
 20
0.392698
 30
0
  0
VERTEX
  8
72_ARTEK_AKFURNITURE_D2_CH_BAC
 10
0.417665
 20
0.392401
 30
0
  0
VERTEX
  8
72_ARTEK_AKFURNITURE_D2_CH_BAC
 10
0.453153
 20
0.392192
 30
0
  0
VERTEX
  8
72_ARTEK_AKFURNITURE_D2_CH_BAC
 10
0.470897
 20
0.392122
 30
0
  0
VERTEX
  8
72_ARTEK_AKFURNITURE_D2_CH_BAC
 10
0.487102
 20
0.392074
 30
0
  0
VERTEX
  8
72_ARTEK_AKFURNITURE_D2_CH_BAC
 10
0.499012
 20
0.392044
 30
0
  0
VERTEX
  8
72_ARTEK_AKFURNITURE_D2_CH_BAC
 10
0.507285
 20
0.392031
 30
0
  0
VERTEX
  8
72_ARTEK_AKFURNITURE_D2_CH_BAC
 10
0.525816
 20
0.39202
 30
0
  0
VERTEX
  8
72_ARTEK_AKFURNITURE_D2_CH_BAC
 10
0.538178
 20
0.392019
 30
0
  0
VERTEX
  8
72_ARTEK_AKFURNITURE_D2_CH_BAC
 10
0.553808
 20
0.392019
 30
0
  0
VERTEX
  8
72_ARTEK_AKFURNITURE_D2_CH_BAC
 10
0.570327
 20
0.392019
 30
0
  0
VERTEX
  8
72_ARTEK_AKFURNITURE_D2_CH_BAC
 10
0.583649
 20
0.39202
 30
0
  0
VERTEX
  8
72_ARTEK_AKFURNITURE_D2_CH_BAC
 10
0.594002
 20
0.392022
 30
0
  0
VERTEX
  8
72_ARTEK_AKFURNITURE_D2_CH_BAC
 10
0.603026
 20
0.392029
 30
0
  0
VERTEX
  8
72_ARTEK_AKFURNITURE_D2_CH_BAC
 10
0.611072
 20
0.392039
 30
0
  0
VERTEX
  8
72_ARTEK_AKFURNITURE_D2_CH_BAC
 10
0.621706
 20
0.392064
 30
0
  0
VERTEX
  8
72_ARTEK_AKFURNITURE_D2_CH_BAC
 10
0.636688
 20
0.392106
 30
0
  0
VERTEX
  8
72_ARTEK_AKFURNITURE_D2_CH_BAC
 10
0.654392
 20
0.392169
 30
0
  0
VERTEX
  8
72_ARTEK_AKFURNITURE_D2_CH_BAC
 10
0.689881
 20
0.392365
 30
0
  0
VERTEX
  8
72_ARTEK_AKFURNITURE_D2_CH_BAC
 10
0.725288
 20
0.392653
 30
0
  0
VERTEX
  8
72_ARTEK_AKFURNITURE_D2_CH_BAC
 10
0.740343
 20
0.392795
 30
0
  0
VERTEX
  8
72_ARTEK_AKFURNITURE_D2_CH_BAC
 10
0.751588
 20
0.392908
 30
0
  0
VERTEX
  8
72_ARTEK_AKFURNITURE_D2_CH_BAC
 10
0.76798
 20
0.393088
 30
0
  0
VERTEX
  8
72_ARTEK_AKFURNITURE_D2_CH_BAC
 10
0.782148
 20
0.393252
 30
0
  0
VERTEX
  8
72_ARTEK_AKFURNITURE_D2_CH_BAC
 10
0.795073
 20
0.393398
 30
0
  0
VERTEX
  8
72_ARTEK_AKFURNITURE_D2_CH_BAC
 10
0.802819
 20
0.393466
 30
0
  0
VERTEX
  8
72_ARTEK_AKFURNITURE_D2_CH_BAC
 10
0.809474
 20
0.393519
 30
0
  0
VERTEX
  8
72_ARTEK_AKFURNITURE_D2_CH_BAC
 10
0.813824
 20
0.393537
 30
0
  0
VERTEX
  8
72_ARTEK_AKFURNITURE_D2_CH_BAC
 10
0.820926
 20
0.393674
 30
0
  0
VERTEX
  8
72_ARTEK_AKFURNITURE_D2_CH_BAC
 10
0.825653
 20
0.394046
 30
0
  0
VERTEX
  8
72_ARTEK_AKFURNITURE_D2_CH_BAC
 10
0.828897
 20
0.394525
 30
0
  0
VERTEX
  8
72_ARTEK_AKFURNITURE_D2_CH_BAC
 10
0.833786
 20
0.395826
 30
0
  0
VERTEX
  8
72_ARTEK_AKFURNITURE_D2_CH_BAC
 10
0.837378
 20
0.39775
 30
0
  0
SEQEND
  0
POLYLINE
  8
72_ARTEK_AKFURNITURE_D2SNAP
 66
     1
 70
     0
 10
0.0
 20
0.0
 30
0.0
  0
VERTEX
  8
72_ARTEK_AKFURNITURE_D2SNAP
 10
0.568878
 20
0.255152
 30
0
  0
VERTEX
  8
72_ARTEK_AKFURNITURE_D2SNAP
 10
0.568637
 20
0.257591
 30
0
  0
VERTEX
  8
72_ARTEK_AKFURNITURE_D2SNAP
 10
0.567926
 20
0.259936
 30
0
  0
VERTEX
  8
72_ARTEK_AKFURNITURE_D2SNAP
 10
0.566771
 20
0.262097
 30
0
  0
VERTEX
  8
72_ARTEK_AKFURNITURE_D2SNAP
 10
0.565216
 20
0.263991
 30
0
  0
VERTEX
  8
72_ARTEK_AKFURNITURE_D2SNAP
 10
0.563322
 20
0.265545
 30
0
  0
VERTEX
  8
72_ARTEK_AKFURNITURE_D2SNAP
 10
0.561161
 20
0.266701
 30
0
  0
VERTEX
  8
72_ARTEK_AKFURNITURE_D2SNAP
 10
0.558816
 20
0.267412
 30
0
  0
VERTEX
  8
72_ARTEK_AKFURNITURE_D2SNAP
 10
0.556378
 20
0.267652
 30
0
  0
VERTEX
  8
72_ARTEK_AKFURNITURE_D2SNAP
 10
0.553939
 20
0.267412
 30
0
  0
VERTEX
  8
72_ARTEK_AKFURNITURE_D2SNAP
 10
0.551594
 20
0.266701
 30
0
  0
VERTEX
  8
72_ARTEK_AKFURNITURE_D2SNAP
 10
0.549433
 20
0.265545
 30
0
  0
VERTEX
  8
72_ARTEK_AKFURNITURE_D2SNAP
 10
0.547539
 20
0.263991
 30
0
  0
VERTEX
  8
72_ARTEK_AKFURNITURE_D2SNAP
 10
0.545984
 20
0.262097
 30
0
  0
VERTEX
  8
72_ARTEK_AKFURNITURE_D2SNAP
 10
0.544829
 20
0.259936
 30
0
  0
VERTEX
  8
72_ARTEK_AKFURNITURE_D2SNAP
 10
0.544118
 20
0.257591
 30
0
  0
VERTEX
  8
72_ARTEK_AKFURNITURE_D2SNAP
 10
0.543878
 20
0.255152
 30
0
  0
VERTEX
  8
72_ARTEK_AKFURNITURE_D2SNAP
 10
0.544118
 20
0.252713
 30
0
  0
VERTEX
  8
72_ARTEK_AKFURNITURE_D2SNAP
 10
0.544829
 20
0.250369
 30
0
  0
VERTEX
  8
72_ARTEK_AKFURNITURE_D2SNAP
 10
0.545984
 20
0.248207
 30
0
  0
VERTEX
  8
72_ARTEK_AKFURNITURE_D2SNAP
 10
0.547539
 20
0.246313
 30
0
  0
VERTEX
  8
72_ARTEK_AKFURNITURE_D2SNAP
 10
0.549433
 20
0.244759
 30
0
  0
VERTEX
  8
72_ARTEK_AKFURNITURE_D2SNAP
 10
0.551594
 20
0.243604
 30
0
  0
VERTEX
  8
72_ARTEK_AKFURNITURE_D2SNAP
 10
0.553939
 20
0.242892
 30
0
  0
VERTEX
  8
72_ARTEK_AKFURNITURE_D2SNAP
 10
0.556378
 20
0.242652
 30
0
  0
VERTEX
  8
72_ARTEK_AKFURNITURE_D2SNAP
 10
0.558816
 20
0.242892
 30
0
  0
VERTEX
  8
72_ARTEK_AKFURNITURE_D2SNAP
 10
0.561161
 20
0.243604
 30
0
  0
VERTEX
  8
72_ARTEK_AKFURNITURE_D2SNAP
 10
0.563322
 20
0.244759
 30
0
  0
VERTEX
  8
72_ARTEK_AKFURNITURE_D2SNAP
 10
0.565216
 20
0.246313
 30
0
  0
VERTEX
  8
72_ARTEK_AKFURNITURE_D2SNAP
 10
0.566771
 20
0.248207
 30
0
  0
VERTEX
  8
72_ARTEK_AKFURNITURE_D2SNAP
 10
0.567926
 20
0.250369
 30
0
  0
VERTEX
  8
72_ARTEK_AKFURNITURE_D2SNAP
 10
0.568637
 20
0.252713
 30
0
  0
VERTEX
  8
72_ARTEK_AKFURNITURE_D2SNAP
 10
0.568878
 20
0.255152
 30
0
  0
SEQEND
  0
POLYLINE
  8
72_ARTEK_AKFURNITURE_D2SNAP
 66
     1
 70
     0
 10
0.0
 20
0.0
 30
0.0
  0
VERTEX
  8
72_ARTEK_AKFURNITURE_D2SNAP
 10
0.5387
 20
0.237474
 30
0
  0
VERTEX
  8
72_ARTEK_AKFURNITURE_D2SNAP
 10
0.574055
 20
0.27283
 30
0
  0
SEQEND
  0
POLYLINE
  8
72_ARTEK_AKFURNITURE_D2SNAP
 66
     1
 70
     0
 10
0.0
 20
0.0
 30
0.0
  0
VERTEX
  8
72_ARTEK_AKFURNITURE_D2SNAP
 10
0.5387
 20
0.27283
 30
0
  0
VERTEX
  8
72_ARTEK_AKFURNITURE_D2SNAP
 10
0.574055
 20
0.237474
 30
0
  0
SEQEND
  0
POLYLINE
  8
72_ARTEK_AKFURNITURE_D2_CH_SEA
 66
     1
 70
     0
 10
0.0
 20
0.0
 30
0.0
  0
VERTEX
  8
72_ARTEK_AKFURNITURE_D2_CH_SEA
 10
0.275378
 20
-0.0935945
 30
0
  0
VERTEX
  8
72_ARTEK_AKFURNITURE_D2_CH_SEA
 10
0.275378
 20
0.339112
 30
0
  0
VERTEX
  8
72_ARTEK_AKFURNITURE_D2_CH_SEA
 10
0.275378
 20
0.3932
 30
0
  0
VERTEX
  8
72_ARTEK_AKFURNITURE_D2_CH_SEA
 10
0.275378
 20
0.396581
 30
0
  0
VERTEX
  8
72_ARTEK_AKFURNITURE_D2_CH_SEA
 10
0.275378
 20
0.397426
 30
0
  0
VERTEX
  8
72_ARTEK_AKFURNITURE_D2_CH_SEA
 10
0.274963
 20
0.397465
 30
0
  0
VERTEX
  8
72_ARTEK_AKFURNITURE_D2_CH_SEA
 10
0.273801
 20
0.39673
 30
0
  0
VERTEX
  8
72_ARTEK_AKFURNITURE_D2_CH_SEA
 10
0.269141
 20
0.395033
 30
0
  0
VERTEX
  8
72_ARTEK_AKFURNITURE_D2_CH_SEA
 10
0.265755
 20
0.394326
 30
0
  0
VERTEX
  8
72_ARTEK_AKFURNITURE_D2_CH_SEA
 10
0.261095
 20
0.393817
 30
0
  0
VERTEX
  8
72_ARTEK_AKFURNITURE_D2_CH_SEA
 10
0.255671
 20
0.393542
 30
0
  0
VERTEX
  8
72_ARTEK_AKFURNITURE_D2_CH_SEA
 10
0.251902
 20
0.393537
 30
0
  0
VERTEX
  8
72_ARTEK_AKFURNITURE_D2_CH_SEA
 10
0.246401
 20
0.393511
 30
0
  0
VERTEX
  8
72_ARTEK_AKFURNITURE_D2_CH_SEA
 10
0.238297
 20
0.393446
 30
0
  0
VERTEX
  8
72_ARTEK_AKFURNITURE_D2_CH_SEA
 10
0.233363
 20
0.393401
 30
0
  0
VERTEX
  8
72_ARTEK_AKFURNITURE_D2_CH_SEA
 10
0.226191
 20
0.393322
 30
0
  0
VERTEX
  8
72_ARTEK_AKFURNITURE_D2_CH_SEA
 10
0.20931
 20
0.393127
 30
0
  0
VERTEX
  8
72_ARTEK_AKFURNITURE_D2_CH_SEA
 10
0.200312
 20
0.393025
 30
0
  0
VERTEX
  8
72_ARTEK_AKFURNITURE_D2_CH_SEA
 10
0.190182
 20
0.392915
 30
0
  0
VERTEX
  8
72_ARTEK_AKFURNITURE_D2_CH_SEA
 10
0.184047
 20
0.392851
 30
0
  0
VERTEX
  8
72_ARTEK_AKFURNITURE_D2_CH_SEA
 10
0.176544
 20
0.392778
 30
0
  0
VERTEX
  8
72_ARTEK_AKFURNITURE_D2_CH_SEA
 10
0.167674
 20
0.392694
 30
0
  0
VERTEX
  8
72_ARTEK_AKFURNITURE_D2_CH_SEA
 10
0.157466
 20
0.392599
 30
0
  0
VERTEX
  8
72_ARTEK_AKFURNITURE_D2_CH_SEA
 10
0.0725475
 20
0.3921
 30
0
  0
VERTEX
  8
72_ARTEK_AKFURNITURE_D2_CH_SEA
 10
0.0633774
 20
0.392073
 30
0
  0
VERTEX
  8
72_ARTEK_AKFURNITURE_D2_CH_SEA
 10
0.0557691
 20
0.392054
 30
0
  0
VERTEX
  8
72_ARTEK_AKFURNITURE_D2_CH_SEA
 10
0.0497226
 20
0.39204
 30
0
  0
VERTEX
  8
72_ARTEK_AKFURNITURE_D2_CH_SEA
 10
0.0449433
 20
0.392033
 30
0
  0
VERTEX
  8
72_ARTEK_AKFURNITURE_D2_CH_SEA
 10
0.0346155
 20
0.392024
 30
0
  0
VERTEX
  8
72_ARTEK_AKFURNITURE_D2_CH_SEA
 10
0.0225628
 20
0.39202
 30
0
  0
VERTEX
  8
72_ARTEK_AKFURNITURE_D2_CH_SEA
 10
0.0151272
 20
0.392019
 30
0
  0
VERTEX
  8
72_ARTEK_AKFURNITURE_D2_CH_SEA
 10
0.00651776
 20
0.392019
 30
0
  0
VERTEX
  8
72_ARTEK_AKFURNITURE_D2_CH_SEA
 10
-0.0135162
 20
0.392019
 30
0
  0
VERTEX
  8
72_ARTEK_AKFURNITURE_D2_CH_SEA
 10
-0.0226525
 20
0.392019
 30
0
  0
VERTEX
  8
72_ARTEK_AKFURNITURE_D2_CH_SEA
 10
-0.030615
 20
0.39202
 30
0
  0
VERTEX
  8
72_ARTEK_AKFURNITURE_D2_CH_SEA
 10
-0.043329
 20
0.392022
 30
0
  0
VERTEX
  8
72_ARTEK_AKFURNITURE_D2_CH_SEA
 10
-0.0641065
 20
0.392047
 30
0
  0
VERTEX
  8
72_ARTEK_AKFURNITURE_D2_CH_SEA
 10
-0.0710137
 20
0.392064
 30
0
  0
VERTEX
  8
72_ARTEK_AKFURNITURE_D2_CH_SEA
 10
-0.0794827
 20
0.392087
 30
0
  0
VERTEX
  8
72_ARTEK_AKFURNITURE_D2_CH_SEA
 10
-0.100137
 20
0.392155
 30
0
  0
VERTEX
  8
72_ARTEK_AKFURNITURE_D2_CH_SEA
 10
-0.14267
 20
0.39239
 30
0
  0
VERTEX
  8
72_ARTEK_AKFURNITURE_D2_CH_SEA
 10
-0.163937
 20
0.392557
 30
0
  0
VERTEX
  8
72_ARTEK_AKFURNITURE_D2_CH_SEA
 10
-0.183976
 20
0.392741
 30
0
  0
VERTEX
  8
72_ARTEK_AKFURNITURE_D2_CH_SEA
 10
-0.192093
 20
0.39282
 30
0
  0
VERTEX
  8
72_ARTEK_AKFURNITURE_D2_CH_SEA
 10
-0.198842
 20
0.392888
 30
0
  0
VERTEX
  8
72_ARTEK_AKFURNITURE_D2_CH_SEA
 10
-0.209383
 20
0.393001
 30
0
  0
VERTEX
  8
72_ARTEK_AKFURNITURE_D2_CH_SEA
 10
-0.227103
 20
0.393202
 30
0
  0
VERTEX
  8
72_ARTEK_AKFURNITURE_D2_CH_SEA
 10
-0.243194
 20
0.393386
 30
0
  0
VERTEX
  8
72_ARTEK_AKFURNITURE_D2_CH_SEA
 10
-0.248618
 20
0.393439
 30
0
  0
VERTEX
  8
72_ARTEK_AKFURNITURE_D2_CH_SEA
 10
-0.252691
 20
0.393472
 30
0
  0
VERTEX
  8
72_ARTEK_AKFURNITURE_D2_CH_SEA
 10
-0.260303
 20
0.393529
 30
0
  0
VERTEX
  8
72_ARTEK_AKFURNITURE_D2_CH_SEA
 10
-0.264597
 20
0.393537
 30
0
  0
VERTEX
  8
72_ARTEK_AKFURNITURE_D2_CH_SEA
 10
-0.268726
 20
0.393599
 30
0
  0
VERTEX
  8
72_ARTEK_AKFURNITURE_D2_CH_SEA
 10
-0.274445
 20
0.393999
 30
0
  0
VERTEX
  8
72_ARTEK_AKFURNITURE_D2_CH_SEA
 10
-0.281513
 20
0.39534
 30
0
  0
VERTEX
  8
72_ARTEK_AKFURNITURE_D2_CH_SEA
 10
-0.285923
 20
0.397275
 30
0
  0
VERTEX
  8
72_ARTEK_AKFURNITURE_D2_CH_SEA
 10
-0.287929
 20
0.399238
 30
0
  0
VERTEX
  8
72_ARTEK_AKFURNITURE_D2_CH_SEA
 10
-0.288396
 20
0.400174
 30
0
  0
VERTEX
  8
72_ARTEK_AKFURNITURE_D2_CH_SEA
 10
-0.288882
 20
0.401981
 30
0
  0
VERTEX
  8
72_ARTEK_AKFURNITURE_D2_CH_SEA
 10
-0.289482
 20
0.404768
 30
0
  0
VERTEX
  8
72_ARTEK_AKFURNITURE_D2_CH_SEA
 10
-0.289485
 20
0.400489
 30
0
  0
VERTEX
  8
72_ARTEK_AKFURNITURE_D2_CH_SEA
 10
-0.289486
 20
0.392935
 30
0
  0
VERTEX
  8
72_ARTEK_AKFURNITURE_D2_CH_SEA
 10
-0.289486
 20
0.276854
 30
0
  0
VERTEX
  8
72_ARTEK_AKFURNITURE_D2_CH_SEA
 10
-0.289486
 20
0.044691
 30
0
  0
VERTEX
  8
72_ARTEK_AKFURNITURE_D2_CH_SEA
 10
-0.289486
 20
-0.0713905
 30
0
  0
VERTEX
  8
72_ARTEK_AKFURNITURE_D2_CH_SEA
 10
-0.289486
 20
-0.0786455
 30
0
  0
VERTEX
  8
72_ARTEK_AKFURNITURE_D2_CH_SEA
 10
-0.289493
 20
-0.0846128
 30
0
  0
VERTEX
  8
72_ARTEK_AKFURNITURE_D2_CH_SEA
 10
-0.289049
 20
-0.0885869
 30
0
  0
VERTEX
  8
72_ARTEK_AKFURNITURE_D2_CH_SEA
 10
-0.288359
 20
-0.0917021
 30
0
  0
VERTEX
  8
72_ARTEK_AKFURNITURE_D2_CH_SEA
 10
-0.284147
 20
-0.0951041
 30
0
  0
VERTEX
  8
72_ARTEK_AKFURNITURE_D2_CH_SEA
 10
-0.281185
 20
-0.0962255
 30
0
  0
VERTEX
  8
72_ARTEK_AKFURNITURE_D2_CH_SEA
 10
-0.27695
 20
-0.0972455
 30
0
  0
VERTEX
  8
72_ARTEK_AKFURNITURE_D2_CH_SEA
 10
-0.271531
 20
-0.097995
 30
0
  0
VERTEX
  8
72_ARTEK_AKFURNITURE_D2_CH_SEA
 10
-0.267531
 20
-0.0983683
 30
0
  0
VERTEX
  8
72_ARTEK_AKFURNITURE_D2_CH_SEA
 10
-0.263628
 20
-0.0986394
 30
0
  0
VERTEX
  8
72_ARTEK_AKFURNITURE_D2_CH_SEA
 10
-0.261029
 20
-0.0987671
 30
0
  0
VERTEX
  8
72_ARTEK_AKFURNITURE_D2_CH_SEA
 10
-0.256414
 20
-0.0988723
 30
0
  0
VERTEX
  8
72_ARTEK_AKFURNITURE_D2_CH_SEA
 10
-0.249807
 20
-0.0989753
 30
0
  0
VERTEX
  8
72_ARTEK_AKFURNITURE_D2_CH_SEA
 10
-0.241828
 20
-0.0990656
 30
0
  0
VERTEX
  8
72_ARTEK_AKFURNITURE_D2_CH_SEA
 10
-0.23371
 20
-0.099104
 30
0
  0
VERTEX
  8
72_ARTEK_AKFURNITURE_D2_CH_SEA
 10
-0.223648
 20
-0.0991321
 30
0
  0
VERTEX
  8
72_ARTEK_AKFURNITURE_D2_CH_SEA
 10
-0.19885
 20
-0.099166
 30
0
  0
VERTEX
  8
72_ARTEK_AKFURNITURE_D2_CH_SEA
 10
-0.192415
 20
-0.0991672
 30
0
  0
VERTEX
  8
72_ARTEK_AKFURNITURE_D2_CH_SEA
 10
-0.190806
 20
-0.0991676
 30
0
  0
VERTEX
  8
72_ARTEK_AKFURNITURE_D2_CH_SEA
 10
-0.189353
 20
-0.0991681
 30
0
  0
VERTEX
  8
72_ARTEK_AKFURNITURE_D2_CH_SEA
 10
-0.186557
 20
-0.0991693
 30
0
  0
VERTEX
  8
72_ARTEK_AKFURNITURE_D2_CH_SEA
 10
-0.182421
 20
-0.0991712
 30
0
  0
VERTEX
  8
72_ARTEK_AKFURNITURE_D2_CH_SEA
 10
-0.176942
 20
-0.0991739
 30
0
  0
VERTEX
  8
72_ARTEK_AKFURNITURE_D2_CH_SEA
 10
-0.162933
 20
-0.0991809
 30
0
  0
VERTEX
  8
72_ARTEK_AKFURNITURE_D2_CH_SEA
 10
-0.150566
 20
-0.0991879
 30
0
  0
VERTEX
  8
72_ARTEK_AKFURNITURE_D2_CH_SEA
 10
-0.140882
 20
-0.0991943
 30
0
  0
VERTEX
  8
72_ARTEK_AKFURNITURE_D2_CH_SEA
 10
-0.124247
 20
-0.099207
 30
0
  0
VERTEX
  8
72_ARTEK_AKFURNITURE_D2_CH_SEA
 10
-0.0909752
 20
-0.0992324
 30
0
  0
VERTEX
  8
72_ARTEK_AKFURNITURE_D2_CH_SEA
 10
-0.0739409
 20
-0.0992399
 30
0
  0
VERTEX
  8
72_ARTEK_AKFURNITURE_D2_CH_SEA
 10
-0.0623309
 20
-0.099243
 30
0
  0
VERTEX
  8
72_ARTEK_AKFURNITURE_D2_CH_SEA
 10
-0.0473945
 20
-0.0992464
 30
0
  0
VERTEX
  8
72_ARTEK_AKFURNITURE_D2_CH_SEA
 10
0.0191457
 20
-0.0992494
 30
0
  0
VERTEX
  8
72_ARTEK_AKFURNITURE_D2_CH_SEA
 10
0.0357808
 20
-0.0992465
 30
0
  0
VERTEX
  8
72_ARTEK_AKFURNITURE_D2_CH_SEA
 10
0.0507908
 20
-0.0992431
 30
0
  0
VERTEX
  8
72_ARTEK_AKFURNITURE_D2_CH_SEA
 10
0.0624745
 20
-0.09924
 30
0
  0
VERTEX
  8
72_ARTEK_AKFURNITURE_D2_CH_SEA
 10
0.0712281
 20
-0.0992369
 30
0
  0
VERTEX
  8
72_ARTEK_AKFURNITURE_D2_CH_SEA
 10
0.104499
 20
-0.0992136
 30
0
  0
VERTEX
  8
72_ARTEK_AKFURNITURE_D2_CH_SEA
 10
0.121135
 20
-0.0992008
 30
0
  0
VERTEX
  8
72_ARTEK_AKFURNITURE_D2_CH_SEA
 10
0.129453
 20
-0.0991944
 30
0
  0
VERTEX
  8
72_ARTEK_AKFURNITURE_D2_CH_SEA
 10
0.139077
 20
-0.099188
 30
0
  0
VERTEX
  8
72_ARTEK_AKFURNITURE_D2_CH_SEA
 10
0.151385
 20
-0.0991811
 30
0
  0
VERTEX
  8
72_ARTEK_AKFURNITURE_D2_CH_SEA
 10
0.165423
 20
-0.099174
 30
0
  0
VERTEX
  8
72_ARTEK_AKFURNITURE_D2_CH_SEA
 10
0.170961
 20
-0.0991713
 30
0
  0
VERTEX
  8
72_ARTEK_AKFURNITURE_D2_CH_SEA
 10
0.175158
 20
-0.0991694
 30
0
  0
VERTEX
  8
72_ARTEK_AKFURNITURE_D2_CH_SEA
 10
0.178012
 20
-0.0991681
 30
0
  0
VERTEX
  8
72_ARTEK_AKFURNITURE_D2_CH_SEA
 10
0.179525
 20
-0.0991676
 30
0
  0
VERTEX
  8
72_ARTEK_AKFURNITURE_D2_CH_SEA
 10
0.192392
 20
-0.0991649
 30
0
  0
VERTEX
  8
72_ARTEK_AKFURNITURE_D2_CH_SEA
 10
0.216457
 20
-0.0991209
 30
0
  0
VERTEX
  8
72_ARTEK_AKFURNITURE_D2_CH_SEA
 10
0.225549
 20
-0.0990947
 30
0
  0
VERTEX
  8
72_ARTEK_AKFURNITURE_D2_CH_SEA
 10
0.233571
 20
-0.0990379
 30
0
  0
VERTEX
  8
72_ARTEK_AKFURNITURE_D2_CH_SEA
 10
0.241251
 20
-0.0989363
 30
0
  0
VERTEX
  8
72_ARTEK_AKFURNITURE_D2_CH_SEA
 10
0.247127
 20
-0.0988353
 30
0
  0
VERTEX
  8
72_ARTEK_AKFURNITURE_D2_CH_SEA
 10
0.250974
 20
-0.0987222
 30
0
  0
VERTEX
  8
72_ARTEK_AKFURNITURE_D2_CH_SEA
 10
0.253121
 20
-0.0985891
 30
0
  0
VERTEX
  8
72_ARTEK_AKFURNITURE_D2_CH_SEA
 10
0.261358
 20
-0.097879
 30
0
  0
VERTEX
  8
72_ARTEK_AKFURNITURE_D2_CH_SEA
 10
0.266584
 20
-0.097074
 30
0
  0
VERTEX
  8
72_ARTEK_AKFURNITURE_D2_CH_SEA
 10
0.270586
 20
-0.0960203
 30
0
  0
VERTEX
  8
72_ARTEK_AKFURNITURE_D2_CH_SEA
 10
0.275378
 20
-0.0935945
 30
0
  0
SEQEND
  0
POLYLINE
  8
72_ARTEK_AKFURNITURE_D2_CH_SEA
 66
     1
 70
     0
 10
0.0
 20
0.0
 30
0.0
  0
VERTEX
  8
72_ARTEK_AKFURNITURE_D2_CH_SEA
 10
0.839495
 20
0.396438
 30
0
  0
VERTEX
  8
72_ARTEK_AKFURNITURE_D2_CH_SEA
 10
0.838253
 20
0.39716
 30
0
  0
VERTEX
  8
72_ARTEK_AKFURNITURE_D2_CH_SEA
 10
0.837481
 20
0.397677
 30
0
  0
VERTEX
  8
72_ARTEK_AKFURNITURE_D2_CH_SEA
 10
0.837378
 20
0.396861
 30
0
  0
VERTEX
  8
72_ARTEK_AKFURNITURE_D2_CH_SEA
 10
0.837378
 20
0.392794
 30
0
  0
VERTEX
  8
72_ARTEK_AKFURNITURE_D2_CH_SEA
 10
0.837378
 20
0.38466
 30
0
  0
VERTEX
  8
72_ARTEK_AKFURNITURE_D2_CH_SEA
 10
0.837378
 20
0.368393
 30
0
  0
VERTEX
  8
72_ARTEK_AKFURNITURE_D2_CH_SEA
 10
0.837378
 20
0.33586
 30
0
  0
VERTEX
  8
72_ARTEK_AKFURNITURE_D2_CH_SEA
 10
0.837378
 20
0.270792
 30
0
  0
VERTEX
  8
72_ARTEK_AKFURNITURE_D2_CH_SEA
 10
0.837378
 20
0.140656
 30
0
  0
VERTEX
  8
72_ARTEK_AKFURNITURE_D2_CH_SEA
 10
0.837378
 20
0.0105205
 30
0
  0
VERTEX
  8
72_ARTEK_AKFURNITURE_D2_CH_SEA
 10
0.837378
 20
-0.0545473
 30
0
  0
VERTEX
  8
72_ARTEK_AKFURNITURE_D2_CH_SEA
 10
0.837378
 20
-0.0870812
 30
0
  0
VERTEX
  8
72_ARTEK_AKFURNITURE_D2_CH_SEA
 10
0.837378
 20
-0.0911479
 30
0
  0
VERTEX
  8
72_ARTEK_AKFURNITURE_D2_CH_SEA
 10
0.837378
 20
-0.0931813
 30
0
  0
VERTEX
  8
72_ARTEK_AKFURNITURE_D2_CH_SEA
 10
0.838472
 20
-0.0943549
 30
0
  0
VERTEX
  8
72_ARTEK_AKFURNITURE_D2_CH_SEA
 10
0.84185
 20
-0.095912
 30
0
  0
VERTEX
  8
72_ARTEK_AKFURNITURE_D2_CH_SEA
 10
0.847426
 20
-0.0973137
 30
0
  0
VERTEX
  8
72_ARTEK_AKFURNITURE_D2_CH_SEA
 10
0.854515
 20
-0.0982027
 30
0
  0
VERTEX
  8
72_ARTEK_AKFURNITURE_D2_CH_SEA
 10
0.859572
 20
-0.0985849
 30
0
  0
VERTEX
  8
72_ARTEK_AKFURNITURE_D2_CH_SEA
 10
0.862818
 20
-0.0987621
 30
0
  0
VERTEX
  8
72_ARTEK_AKFURNITURE_D2_CH_SEA
 10
0.869471
 20
-0.0989044
 30
0
  0
VERTEX
  8
72_ARTEK_AKFURNITURE_D2_CH_SEA
 10
0.879588
 20
-0.0990421
 30
0
  0
VERTEX
  8
72_ARTEK_AKFURNITURE_D2_CH_SEA
 10
0.890629
 20
-0.099105
 30
0
  0
VERTEX
  8
72_ARTEK_AKFURNITURE_D2_CH_SEA
 10
0.897257
 20
-0.0991236
 30
0
  0
VERTEX
  8
72_ARTEK_AKFURNITURE_D2_CH_SEA
 10
0.905073
 20
-0.0991445
 30
0
  0
VERTEX
  8
72_ARTEK_AKFURNITURE_D2_CH_SEA
 10
0.922058
 20
-0.0991654
 30
0
  0
VERTEX
  8
72_ARTEK_AKFURNITURE_D2_CH_SEA
 10
0.930812
 20
-0.0991671
 30
0
  0
VERTEX
  8
72_ARTEK_AKFURNITURE_D2_CH_SEA
 10
0.933001
 20
-0.0991675
 30
0
  0
VERTEX
  8
72_ARTEK_AKFURNITURE_D2_CH_SEA
 10
0.934915
 20
-0.0991682
 30
0
  0
VERTEX
  8
72_ARTEK_AKFURNITURE_D2_CH_SEA
 10
0.939268
 20
-0.0991701
 30
0
  0
VERTEX
  8
72_ARTEK_AKFURNITURE_D2_CH_SEA
 10
0.946105
 20
-0.0991734
 30
0
  0
VERTEX
  8
72_ARTEK_AKFURNITURE_D2_CH_SEA
 10
0.955391
 20
-0.099178
 30
0
  0
VERTEX
  8
72_ARTEK_AKFURNITURE_D2_CH_SEA
 10
0.964823
 20
-0.0991829
 30
0
  0
VERTEX
  8
72_ARTEK_AKFURNITURE_D2_CH_SEA
 10
0.973013
 20
-0.0991876
 30
0
  0
VERTEX
  8
72_ARTEK_AKFURNITURE_D2_CH_SEA
 10
0.985801
 20
-0.0991963
 30
0
  0
VERTEX
  8
72_ARTEK_AKFURNITURE_D2_CH_SEA
 10
0.997118
 20
-0.099205
 30
0
  0
VERTEX
  8
72_ARTEK_AKFURNITURE_D2_CH_SEA
 10
1.01975
 20
-0.0992226
 30
0
  0
VERTEX
  8
72_ARTEK_AKFURNITURE_D2_CH_SEA
 10
1.04239
 20
-0.0992372
 30
0
  0
VERTEX
  8
72_ARTEK_AKFURNITURE_D2_CH_SEA
 10
1.04819
 20
-0.0992393
 30
0
  0
VERTEX
  8
72_ARTEK_AKFURNITURE_D2_CH_SEA
 10
1.05529
 20
-0.0992414
 30
0
  0
VERTEX
  8
72_ARTEK_AKFURNITURE_D2_CH_SEA
 10
1.06392
 20
-0.0992436
 30
0
  0
VERTEX
  8
72_ARTEK_AKFURNITURE_D2_CH_SEA
 10
1.0741
 20
-0.0992459
 30
0
  0
VERTEX
  8
72_ARTEK_AKFURNITURE_D2_CH_SEA
 10
1.16446
 20
-0.0992455
 30
0
  0
VERTEX
  8
72_ARTEK_AKFURNITURE_D2_CH_SEA
 10
1.17438
 20
-0.0992432
 30
0
  0
VERTEX
  8
72_ARTEK_AKFURNITURE_D2_CH_SEA
 10
1.18276
 20
-0.0992411
 30
0
  0
VERTEX
  8
72_ARTEK_AKFURNITURE_D2_CH_SEA
 10
1.19531
 20
-0.0992368
 30
0
  0
VERTEX
  8
72_ARTEK_AKFURNITURE_D2_CH_SEA
 10
1.21794
 20
-0.0992219
 30
0
  0
VERTEX
  8
72_ARTEK_AKFURNITURE_D2_CH_SEA
 10
1.24058
 20
-0.0992042
 30
0
  0
VERTEX
  8
72_ARTEK_AKFURNITURE_D2_CH_SEA
 10
1.25189
 20
-0.0991956
 30
0
  0
VERTEX
  8
72_ARTEK_AKFURNITURE_D2_CH_SEA
 10
1.25786
 20
-0.0991913
 30
0
  0
VERTEX
  8
72_ARTEK_AKFURNITURE_D2_CH_SEA
 10
1.26502
 20
-0.0991868
 30
0
  0
VERTEX
  8
72_ARTEK_AKFURNITURE_D2_CH_SEA
 10
1.27341
 20
-0.0991821
 30
0
  0
VERTEX
  8
72_ARTEK_AKFURNITURE_D2_CH_SEA
 10
1.28305
 20
-0.0991772
 30
0
  0
VERTEX
  8
72_ARTEK_AKFURNITURE_D2_CH_SEA
 10
1.29196
 20
-0.0991728
 30
0
  0
VERTEX
  8
72_ARTEK_AKFURNITURE_D2_CH_SEA
 10
1.29838
 20
-0.0991697
 30
0
  0
VERTEX
  8
72_ARTEK_AKFURNITURE_D2_CH_SEA
 10
1.30232
 20
-0.099168
 30
0
  0
VERTEX
  8
72_ARTEK_AKFURNITURE_D2_CH_SEA
 10
1.30394
 20
-0.0991675
 30
0
  0
VERTEX
  8
72_ARTEK_AKFURNITURE_D2_CH_SEA
 10
1.30612
 20
-0.0991671
 30
0
  0
VERTEX
  8
72_ARTEK_AKFURNITURE_D2_CH_SEA
 10
1.3235
 20
-0.0991593
 30
0
  0
VERTEX
  8
72_ARTEK_AKFURNITURE_D2_CH_SEA
 10
1.33965
 20
-0.0991232
 30
0
  0
VERTEX
  8
72_ARTEK_AKFURNITURE_D2_CH_SEA
 10
1.35182
 20
-0.0990843
 30
0
  0
VERTEX
  8
72_ARTEK_AKFURNITURE_D2_CH_SEA
 10
1.36269
 20
-0.0989735
 30
0
  0
VERTEX
  8
72_ARTEK_AKFURNITURE_D2_CH_SEA
 10
1.37115
 20
-0.0988348
 30
0
  0
VERTEX
  8
72_ARTEK_AKFURNITURE_D2_CH_SEA
 10
1.37586
 20
-0.0986748
 30
0
  0
VERTEX
  8
72_ARTEK_AKFURNITURE_D2_CH_SEA
 10
1.38109
 20
-0.0983045
 30
0
  0
VERTEX
  8
72_ARTEK_AKFURNITURE_D2_CH_SEA
 10
1.38762
 20
-0.0975889
 30
0
  0
VERTEX
  8
72_ARTEK_AKFURNITURE_D2_CH_SEA
 10
1.39376
 20
-0.0962798
 30
0
  0
VERTEX
  8
72_ARTEK_AKFURNITURE_D2_CH_SEA
 10
1.3976
 20
-0.0947484
 30
0
  0
VERTEX
  8
72_ARTEK_AKFURNITURE_D2_CH_SEA
 10
1.40068
 20
-0.0924469
 30
0
  0
VERTEX
  8
72_ARTEK_AKFURNITURE_D2_CH_SEA
 10
1.40132
 20
-0.089655
 30
0
  0
VERTEX
  8
72_ARTEK_AKFURNITURE_D2_CH_SEA
 10
1.40201
 20
-0.0880334
 30
0
  0
VERTEX
  8
72_ARTEK_AKFURNITURE_D2_CH_SEA
 10
1.40225
 20
-0.0851903
 30
0
  0
VERTEX
  8
72_ARTEK_AKFURNITURE_D2_CH_SEA
 10
1.40224
 20
-0.0816757
 30
0
  0
VERTEX
  8
72_ARTEK_AKFURNITURE_D2_CH_SEA
 10
1.40224
 20
-0.0769248
 30
0
  0
VERTEX
  8
72_ARTEK_AKFURNITURE_D2_CH_SEA
 10
1.40224
 20
0.00204312
 30
0
  0
VERTEX
  8
72_ARTEK_AKFURNITURE_D2_CH_SEA
 10
1.40224
 20
0.159979
 30
0
  0
VERTEX
  8
72_ARTEK_AKFURNITURE_D2_CH_SEA
 10
1.40224
 20
0.317915
 30
0
  0
VERTEX
  8
72_ARTEK_AKFURNITURE_D2_CH_SEA
 10
1.40224
 20
0.396907
 30
0
  0
VERTEX
  8
72_ARTEK_AKFURNITURE_D2_CH_SEA
 10
1.40224
 20
0.402364
 30
0
  0
VERTEX
  8
72_ARTEK_AKFURNITURE_D2_CH_SEA
 10
1.40219
 20
0.404817
 30
0
  0
VERTEX
  8
72_ARTEK_AKFURNITURE_D2_CH_SEA
 10
1.40174
 20
0.402507
 30
0
  0
VERTEX
  8
72_ARTEK_AKFURNITURE_D2_CH_SEA
 10
1.40108
 20
0.400023
 30
0
  0
VERTEX
  8
72_ARTEK_AKFURNITURE_D2_CH_SEA
 10
1.39947
 20
0.397816
 30
0
  0
VERTEX
  8
72_ARTEK_AKFURNITURE_D2_CH_SEA
 10
1.39653
 20
0.39611
 30
0
  0
VERTEX
  8
72_ARTEK_AKFURNITURE_D2_CH_SEA
 10
1.39304
 20
0.395006
 30
0
  0
VERTEX
  8
72_ARTEK_AKFURNITURE_D2_CH_SEA
 10
1.38821
 20
0.394109
 30
0
  0
VERTEX
  8
72_ARTEK_AKFURNITURE_D2_CH_SEA
 10
1.38077
 20
0.39357
 30
0
  0
VERTEX
  8
72_ARTEK_AKFURNITURE_D2_CH_SEA
 10
1.37547
 20
0.393537
 30
0
  0
VERTEX
  8
72_ARTEK_AKFURNITURE_D2_CH_SEA
 10
1.37189
 20
0.393522
 30
0
  0
VERTEX
  8
72_ARTEK_AKFURNITURE_D2_CH_SEA
 10
1.36655
 20
0.39348
 30
0
  0
VERTEX
  8
72_ARTEK_AKFURNITURE_D2_CH_SEA
 10
1.36099
 20
0.393435
 30
0
  0
VERTEX
  8
72_ARTEK_AKFURNITURE_D2_CH_SEA
 10
1.35279
 20
0.393351
 30
0
  0
VERTEX
  8
72_ARTEK_AKFURNITURE_D2_CH_SEA
 10
1.3299
 20
0.393088
 30
0
  0
VERTEX
  8
72_ARTEK_AKFURNITURE_D2_CH_SEA
 10
1.31678
 20
0.392943
 30
0
  0
VERTEX
  8
72_ARTEK_AKFURNITURE_D2_CH_SEA
 10
1.30893
 20
0.39286
 30
0
  0
VERTEX
  8
72_ARTEK_AKFURNITURE_D2_CH_SEA
 10
1.29863
 20
0.392759
 30
0
  0
VERTEX
  8
72_ARTEK_AKFURNITURE_D2_CH_SEA
 10
1.2858
 20
0.392639
 30
0
  0
VERTEX
  8
72_ARTEK_AKFURNITURE_D2_CH_SEA
 10
1.27136
 20
0.392512
 30
0
  0
VERTEX
  8
72_ARTEK_AKFURNITURE_D2_CH_SEA
 10
1.24242
 20
0.392304
 30
0
  0
VERTEX
  8
72_ARTEK_AKFURNITURE_D2_CH_SEA
 10
1.21349
 20
0.392157
 30
0
  0
VERTEX
  8
72_ARTEK_AKFURNITURE_D2_CH_SEA
 10
1.19905
 20
0.392107
 30
0
  0
VERTEX
  8
72_ARTEK_AKFURNITURE_D2_CH_SEA
 10
1.18643
 20
0.392071
 30
0
  0
VERTEX
  8
72_ARTEK_AKFURNITURE_D2_CH_SEA
 10
1.1767
 20
0.392047
 30
0
  0
VERTEX
  8
72_ARTEK_AKFURNITURE_D2_CH_SEA
 10
1.16972
 20
0.392034
 30
0
  0
VERTEX
  8
72_ARTEK_AKFURNITURE_D2_CH_SEA
 10
1.15547
 20
0.392022
 30
0
  0
VERTEX
  8
72_ARTEK_AKFURNITURE_D2_CH_SEA
 10
1.14713
 20
0.39202
 30
0
  0
VERTEX
  8
72_ARTEK_AKFURNITURE_D2_CH_SEA
 10
1.13686
 20
0.392019
 30
0
  0
VERTEX
  8
72_ARTEK_AKFURNITURE_D2_CH_SEA
 10
1.12441
 20
0.392019
 30
0
  0
VERTEX
  8
72_ARTEK_AKFURNITURE_D2_CH_SEA
 10
1.1105
 20
0.392019
 30
0
  0
VERTEX
  8
72_ARTEK_AKFURNITURE_D2_CH_SEA
 10
1.09835
 20
0.392019
 30
0
  0
VERTEX
  8
72_ARTEK_AKFURNITURE_D2_CH_SEA
 10
1.08838
 20
0.39202
 30
0
  0
VERTEX
  8
72_ARTEK_AKFURNITURE_D2_CH_SEA
 10
1.07282
 20
0.392028
 30
0
  0
VERTEX
  8
72_ARTEK_AKFURNITURE_D2_CH_SEA
 10
1.05888
 20
0.392049
 30
0
  0
VERTEX
  8
72_ARTEK_AKFURNITURE_D2_CH_SEA
 10
1.04876
 20
0.392075
 30
0
  0
VERTEX
  8
72_ARTEK_AKFURNITURE_D2_CH_SEA
 10
1.03574
 20
0.392113
 30
0
  0
VERTEX
  8
72_ARTEK_AKFURNITURE_D2_CH_SEA
 10
0.97787
 20
0.392414
 30
0
  0
VERTEX
  8
72_ARTEK_AKFURNITURE_D2_CH_SEA
 10
0.949038
 20
0.392657
 30
0
  0
VERTEX
  8
72_ARTEK_AKFURNITURE_D2_CH_SEA
 10
0.936555
 20
0.392774
 30
0
  0
VERTEX
  8
72_ARTEK_AKFURNITURE_D2_CH_SEA
 10
0.926605
 20
0.392873
 30
0
  0
VERTEX
  8
72_ARTEK_AKFURNITURE_D2_CH_SEA
 10
0.912253
 20
0.393027
 30
0
  0
VERTEX
  8
72_ARTEK_AKFURNITURE_D2_CH_SEA
 10
0.900233
 20
0.393164
 30
0
  0
VERTEX
  8
72_ARTEK_AKFURNITURE_D2_CH_SEA
 10
0.888746
 20
0.393297
 30
0
  0
VERTEX
  8
72_ARTEK_AKFURNITURE_D2_CH_SEA
 10
0.87879
 20
0.393407
 30
0
  0
VERTEX
  8
72_ARTEK_AKFURNITURE_D2_CH_SEA
 10
0.867056
 20
0.393506
 30
0
  0
VERTEX
  8
72_ARTEK_AKFURNITURE_D2_CH_SEA
 10
0.862573
 20
0.393534
 30
0
  0
VERTEX
  8
72_ARTEK_AKFURNITURE_D2_CH_SEA
 10
0.859836
 20
0.393537
 30
0
  0
VERTEX
  8
72_ARTEK_AKFURNITURE_D2_CH_SEA
 10
0.853921
 20
0.393669
 30
0
  0
VERTEX
  8
72_ARTEK_AKFURNITURE_D2_CH_SEA
 10
0.847026
 20
0.394322
 30
0
  0
VERTEX
  8
72_ARTEK_AKFURNITURE_D2_CH_SEA
 10
0.842582
 20
0.395313
 30
0
  0
VERTEX
  8
72_ARTEK_AKFURNITURE_D2_CH_SEA
 10
0.839495
 20
0.396438
 30
0
  0
SEQEND
  0
POLYLINE
  8
72_ARTEK_AKFURNITURE_D2_CH_SEA
 66
     1
 70
     0
 10
0.0
 20
0.0
 30
0.0
  0
VERTEX
  8
72_ARTEK_AKFURNITURE_D2_CH_SEA
 10
0.277495
 20
0.396438
 30
0
  0
VERTEX
  8
72_ARTEK_AKFURNITURE_D2_CH_SEA
 10
0.276071
 20
0.397279
 30
0
  0
VERTEX
  8
72_ARTEK_AKFURNITURE_D2_CH_SEA
 10
0.275378
 20
0.3975
 30
0
  0
VERTEX
  8
72_ARTEK_AKFURNITURE_D2_CH_SEA
 10
0.275378
 20
0.396357
 30
0
  0
VERTEX
  8
72_ARTEK_AKFURNITURE_D2_CH_SEA
 10
0.275378
 20
0.391786
 30
0
  0
VERTEX
  8
72_ARTEK_AKFURNITURE_D2_CH_SEA
 10
0.275378
 20
0.382645
 30
0
  0
VERTEX
  8
72_ARTEK_AKFURNITURE_D2_CH_SEA
 10
0.275378
 20
0.364364
 30
0
  0
VERTEX
  8
72_ARTEK_AKFURNITURE_D2_CH_SEA
 10
0.275378
 20
0.3278
 30
0
  0
VERTEX
  8
72_ARTEK_AKFURNITURE_D2_CH_SEA
 10
0.275378
 20
0.254672
 30
0
  0
VERTEX
  8
72_ARTEK_AKFURNITURE_D2_CH_SEA
 10
0.275378
 20
0.108417
 30
0
  0
VERTEX
  8
72_ARTEK_AKFURNITURE_D2_CH_SEA
 10
0.275378
 20
-0.0378387
 30
0
  0
VERTEX
  8
72_ARTEK_AKFURNITURE_D2_CH_SEA
 10
0.275378
 20
-0.0744026
 30
0
  0
VERTEX
  8
72_ARTEK_AKFURNITURE_D2_CH_SEA
 10
0.275378
 20
-0.0926845
 30
0
  0
VERTEX
  8
72_ARTEK_AKFURNITURE_D2_CH_SEA
 10
0.276312
 20
-0.094256
 30
0
  0
VERTEX
  8
72_ARTEK_AKFURNITURE_D2_CH_SEA
 10
0.277945
 20
-0.0951478
 30
0
  0
VERTEX
  8
72_ARTEK_AKFURNITURE_D2_CH_SEA
 10
0.28307
 20
-0.0968323
 30
0
  0
VERTEX
  8
72_ARTEK_AKFURNITURE_D2_CH_SEA
 10
0.29098
 20
-0.0980488
 30
0
  0
VERTEX
  8
72_ARTEK_AKFURNITURE_D2_CH_SEA
 10
0.296888
 20
-0.0985384
 30
0
  0
VERTEX
  8
72_ARTEK_AKFURNITURE_D2_CH_SEA
 10
0.300235
 20
-0.0987411
 30
0
  0
VERTEX
  8
72_ARTEK_AKFURNITURE_D2_CH_SEA
 10
0.303232
 20
-0.0988269
 30
0
  0
VERTEX
  8
72_ARTEK_AKFURNITURE_D2_CH_SEA
 10
0.307423
 20
-0.0989036
 30
0
  0
VERTEX
  8
72_ARTEK_AKFURNITURE_D2_CH_SEA
 10
0.318879
 20
-0.0990546
 30
0
  0
VERTEX
  8
72_ARTEK_AKFURNITURE_D2_CH_SEA
 10
0.331686
 20
-0.0991136
 30
0
  0
VERTEX
  8
72_ARTEK_AKFURNITURE_D2_CH_SEA
 10
0.349161
 20
-0.0991564
 30
0
  0
VERTEX
  8
72_ARTEK_AKFURNITURE_D2_CH_SEA
 10
0.368635
 20
-0.0991671
 30
0
  0
VERTEX
  8
72_ARTEK_AKFURNITURE_D2_CH_SEA
 10
0.371095
 20
-0.0991675
 30
0
  0
VERTEX
  8
72_ARTEK_AKFURNITURE_D2_CH_SEA
 10
0.373622
 20
-0.0991685
 30
0
  0
VERTEX
  8
72_ARTEK_AKFURNITURE_D2_CH_SEA
 10
0.379273
 20
-0.0991711
 30
0
  0
VERTEX
  8
72_ARTEK_AKFURNITURE_D2_CH_SEA
 10
0.388061
 20
-0.0991753
 30
0
  0
VERTEX
  8
72_ARTEK_AKFURNITURE_D2_CH_SEA
 10
0.399026
 20
-0.0991809
 30
0
  0
VERTEX
  8
72_ARTEK_AKFURNITURE_D2_CH_SEA
 10
0.408729
 20
-0.0991862
 30
0
  0
VERTEX
  8
72_ARTEK_AKFURNITURE_D2_CH_SEA
 10
0.416863
 20
-0.0991913
 30
0
  0
VERTEX
  8
72_ARTEK_AKFURNITURE_D2_CH_SEA
 10
0.468051
 20
-0.0992305
 30
0
  0
VERTEX
  8
72_ARTEK_AKFURNITURE_D2_CH_SEA
 10
0.48077
 20
-0.0992374
 30
0
  0
VERTEX
  8
72_ARTEK_AKFURNITURE_D2_CH_SEA
 10
0.487431
 20
-0.0992397
 30
0
  0
VERTEX
  8
72_ARTEK_AKFURNITURE_D2_CH_SEA
 10
0.495845
 20
-0.0992421
 30
0
  0
VERTEX
  8
72_ARTEK_AKFURNITURE_D2_CH_SEA
 10
0.506204
 20
-0.0992446
 30
0
  0
VERTEX
  8
72_ARTEK_AKFURNITURE_D2_CH_SEA
 10
0.518428
 20
-0.0992472
 30
0
  0
VERTEX
  8
72_ARTEK_AKFURNITURE_D2_CH_SEA
 10
0.543864
 20
-0.099251
 30
0
  0
VERTEX
  8
72_ARTEK_AKFURNITURE_D2_CH_SEA
 10
0.594737
 20
-0.0992471
 30
0
  0
VERTEX
  8
72_ARTEK_AKFURNITURE_D2_CH_SEA
 10
0.606915
 20
-0.0992445
 30
0
  0
VERTEX
  8
72_ARTEK_AKFURNITURE_D2_CH_SEA
 10
0.617212
 20
-0.099242
 30
0
  0
VERTEX
  8
72_ARTEK_AKFURNITURE_D2_CH_SEA
 10
0.625563
 20
-0.0992397
 30
0
  0
VERTEX
  8
72_ARTEK_AKFURNITURE_D2_CH_SEA
 10
0.63219
 20
-0.0992373
 30
0
  0
VERTEX
  8
72_ARTEK_AKFURNITURE_D2_CH_SEA
 10
0.683066
 20
-0.0992008
 30
0
  0
VERTEX
  8
72_ARTEK_AKFURNITURE_D2_CH_SEA
 10
0.69613
 20
-0.0991911
 30
0
  0
VERTEX
  8
72_ARTEK_AKFURNITURE_D2_CH_SEA
 10
0.704315
 20
-0.0991861
 30
0
  0
VERTEX
  8
72_ARTEK_AKFURNITURE_D2_CH_SEA
 10
0.714068
 20
-0.0991807
 30
0
  0
VERTEX
  8
72_ARTEK_AKFURNITURE_D2_CH_SEA
 10
0.725026
 20
-0.0991752
 30
0
  0
VERTEX
  8
72_ARTEK_AKFURNITURE_D2_CH_SEA
 10
0.733713
 20
-0.099171
 30
0
  0
VERTEX
  8
72_ARTEK_AKFURNITURE_D2_CH_SEA
 10
0.739263
 20
-0.0991684
 30
0
  0
VERTEX
  8
72_ARTEK_AKFURNITURE_D2_CH_SEA
 10
0.7417
 20
-0.0991675
 30
0
  0
VERTEX
  8
72_ARTEK_AKFURNITURE_D2_CH_SEA
 10
0.761256
 20
-0.0991596
 30
0
  0
VERTEX
  8
72_ARTEK_AKFURNITURE_D2_CH_SEA
 10
0.779195
 20
-0.0991189
 30
0
  0
VERTEX
  8
72_ARTEK_AKFURNITURE_D2_CH_SEA
 10
0.792367
 20
-0.0990673
 30
0
  0
VERTEX
  8
72_ARTEK_AKFURNITURE_D2_CH_SEA
 10
0.804125
 20
-0.0989229
 30
0
  0
VERTEX
  8
72_ARTEK_AKFURNITURE_D2_CH_SEA
 10
0.8086
 20
-0.0988458
 30
0
  0
VERTEX
  8
72_ARTEK_AKFURNITURE_D2_CH_SEA
 10
0.811895
 20
-0.0987635
 30
0
  0
VERTEX
  8
72_ARTEK_AKFURNITURE_D2_CH_SEA
 10
0.818446
 20
-0.0983559
 30
0
  0
VERTEX
  8
72_ARTEK_AKFURNITURE_D2_CH_SEA
 10
0.82131
 20
-0.0980969
 30
0
  0
VERTEX
  8
72_ARTEK_AKFURNITURE_D2_CH_SEA
 10
0.825534
 20
-0.0976014
 30
0
  0
VERTEX
  8
72_ARTEK_AKFURNITURE_D2_CH_SEA
 10
0.832303
 20
-0.0961124
 30
0
  0
VERTEX
  8
72_ARTEK_AKFURNITURE_D2_CH_SEA
 10
0.836259
 20
-0.0943695
 30
0
  0
VERTEX
  8
72_ARTEK_AKFURNITURE_D2_CH_SEA
 10
0.837378
 20
-0.0929655
 30
0
  0
VERTEX
  8
72_ARTEK_AKFURNITURE_D2_CH_SEA
 10
0.837378
 20
-0.0906803
 30
0
  0
VERTEX
  8
72_ARTEK_AKFURNITURE_D2_CH_SEA
 10
0.837378
 20
-0.0723984
 30
0
  0
VERTEX
  8
72_ARTEK_AKFURNITURE_D2_CH_SEA
 10
0.837378
 20
0.220111
 30
0
  0
VERTEX
  8
72_ARTEK_AKFURNITURE_D2_CH_SEA
 10
0.837378
 20
0.366366
 30
0
  0
VERTEX
  8
72_ARTEK_AKFURNITURE_D2_CH_SEA
 10
0.837378
 20
0.384648
 30
0
  0
VERTEX
  8
72_ARTEK_AKFURNITURE_D2_CH_SEA
 10
0.837378
 20
0.393789
 30
0
  0
VERTEX
  8
72_ARTEK_AKFURNITURE_D2_CH_SEA
 10
0.837378
 20
0.396074
 30
0
  0
VERTEX
  8
72_ARTEK_AKFURNITURE_D2_CH_SEA
 10
0.837378
 20
0.397217
 30
0
  0
VERTEX
  8
72_ARTEK_AKFURNITURE_D2_CH_SEA
 10
0.836896
 20
0.397419
 30
0
  0
VERTEX
  8
72_ARTEK_AKFURNITURE_D2_CH_SEA
 10
0.834094
 20
0.395939
 30
0
  0
VERTEX
  8
72_ARTEK_AKFURNITURE_D2_CH_SEA
 10
0.83042
 20
0.394853
 30
0
  0
VERTEX
  8
72_ARTEK_AKFURNITURE_D2_CH_SEA
 10
0.825346
 20
0.394014
 30
0
  0
VERTEX
  8
72_ARTEK_AKFURNITURE_D2_CH_SEA
 10
0.817949
 20
0.393547
 30
0
  0
VERTEX
  8
72_ARTEK_AKFURNITURE_D2_CH_SEA
 10
0.812766
 20
0.393536
 30
0
  0
VERTEX
  8
72_ARTEK_AKFURNITURE_D2_CH_SEA
 10
0.80869
 20
0.393513
 30
0
  0
VERTEX
  8
72_ARTEK_AKFURNITURE_D2_CH_SEA
 10
0.803235
 20
0.39347
 30
0
  0
VERTEX
  8
72_ARTEK_AKFURNITURE_D2_CH_SEA
 10
0.797453
 20
0.393421
 30
0
  0
VERTEX
  8
72_ARTEK_AKFURNITURE_D2_CH_SEA
 10
0.788352
 20
0.393324
 30
0
  0
VERTEX
  8
72_ARTEK_AKFURNITURE_D2_CH_SEA
 10
0.765273
 20
0.393058
 30
0
  0
VERTEX
  8
72_ARTEK_AKFURNITURE_D2_CH_SEA
 10
0.75178
 20
0.39291
 30
0
  0
VERTEX
  8
72_ARTEK_AKFURNITURE_D2_CH_SEA
 10
0.743025
 20
0.392821
 30
0
  0
VERTEX
  8
72_ARTEK_AKFURNITURE_D2_CH_SEA
 10
0.731769
 20
0.392713
 30
0
  0
VERTEX
  8
72_ARTEK_AKFURNITURE_D2_CH_SEA
 10
0.674964
 20
0.392271
 30
0
  0
VERTEX
  8
72_ARTEK_AKFURNITURE_D2_CH_SEA
 10
0.646211
 20
0.392137
 30
0
  0
VERTEX
  8
72_ARTEK_AKFURNITURE_D2_CH_SEA
 10
0.632193
 20
0.392093
 30
0
  0
VERTEX
  8
72_ARTEK_AKFURNITURE_D2_CH_SEA
 10
0.620676
 20
0.392061
 30
0
  0
VERTEX
  8
72_ARTEK_AKFURNITURE_D2_CH_SEA
 10
0.612014
 20
0.392041
 30
0
  0
VERTEX
  8
72_ARTEK_AKFURNITURE_D2_CH_SEA
 10
0.605507
 20
0.392031
 30
0
  0
VERTEX
  8
72_ARTEK_AKFURNITURE_D2_CH_SEA
 10
0.590863
 20
0.392021
 30
0
  0
VERTEX
  8
72_ARTEK_AKFURNITURE_D2_CH_SEA
 10
0.582071
 20
0.39202
 30
0
  0
VERTEX
  8
72_ARTEK_AKFURNITURE_D2_CH_SEA
 10
0.571178
 20
0.392019
 30
0
  0
VERTEX
  8
72_ARTEK_AKFURNITURE_D2_CH_SEA
 10
0.544603
 20
0.392019
 30
0
  0
VERTEX
  8
72_ARTEK_AKFURNITURE_D2_CH_SEA
 10
0.53318
 20
0.392019
 30
0
  0
VERTEX
  8
72_ARTEK_AKFURNITURE_D2_CH_SEA
 10
0.523902
 20
0.392021
 30
0
  0
VERTEX
  8
72_ARTEK_AKFURNITURE_D2_CH_SEA
 10
0.508906
 20
0.392029
 30
0
  0
VERTEX
  8
72_ARTEK_AKFURNITURE_D2_CH_SEA
 10
0.502444
 20
0.392038
 30
0
  0
VERTEX
  8
72_ARTEK_AKFURNITURE_D2_CH_SEA
 10
0.494488
 20
0.392055
 30
0
  0
VERTEX
  8
72_ARTEK_AKFURNITURE_D2_CH_SEA
 10
0.483677
 20
0.392084
 30
0
  0
VERTEX
  8
72_ARTEK_AKFURNITURE_D2_CH_SEA
 10
0.470102
 20
0.392125
 30
0
  0
VERTEX
  8
72_ARTEK_AKFURNITURE_D2_CH_SEA
 10
0.412596
 20
0.392439
 30
0
  0
VERTEX
  8
72_ARTEK_AKFURNITURE_D2_CH_SEA
 10
0.384157
 20
0.392683
 30
0
  0
VERTEX
  8
72_ARTEK_AKFURNITURE_D2_CH_SEA
 10
0.372283
 20
0.392796
 30
0
  0
VERTEX
  8
72_ARTEK_AKFURNITURE_D2_CH_SEA
 10
0.362909
 20
0.39289
 30
0
  0
VERTEX
  8
72_ARTEK_AKFURNITURE_D2_CH_SEA
 10
0.349038
 20
0.39304
 30
0
  0
VERTEX
  8
72_ARTEK_AKFURNITURE_D2_CH_SEA
 10
0.337222
 20
0.393176
 30
0
  0
VERTEX
  8
72_ARTEK_AKFURNITURE_D2_CH_SEA
 10
0.325807
 20
0.393308
 30
0
  0
VERTEX
  8
72_ARTEK_AKFURNITURE_D2_CH_SEA
 10
0.316205
 20
0.393413
 30
0
  0
VERTEX
  8
72_ARTEK_AKFURNITURE_D2_CH_SEA
 10
0.304713
 20
0.393508
 30
0
  0
VERTEX
  8
72_ARTEK_AKFURNITURE_D2_CH_SEA
 10
0.300382
 20
0.393535
 30
0
  0
VERTEX
  8
72_ARTEK_AKFURNITURE_D2_CH_SEA
 10
0.297708
 20
0.393537
 30
0
  0
VERTEX
  8
72_ARTEK_AKFURNITURE_D2_CH_SEA
 10
0.291769
 20
0.393677
 30
0
  0
VERTEX
  8
72_ARTEK_AKFURNITURE_D2_CH_SEA
 10
0.284962
 20
0.394332
 30
0
  0
VERTEX
  8
72_ARTEK_AKFURNITURE_D2_CH_SEA
 10
0.280558
 20
0.39532
 30
0
  0
VERTEX
  8
72_ARTEK_AKFURNITURE_D2_CH_SEA
 10
0.277495
 20
0.396438
 30
0
  0
SEQEND
  0
POLYLINE
  8
72_ARTEK_AKFURNITURE_D2SNAP
 66
     1
 70
     0
 10
0.0
 20
0.0
 30
0.0
  0
VERTEX
  8
72_ARTEK_AKFURNITURE_D2SNAP
 10
0.568878
 20
0.255152
 30
0
  0
VERTEX
  8
72_ARTEK_AKFURNITURE_D2SNAP
 10
0.568637
 20
0.257591
 30
0
  0
VERTEX
  8
72_ARTEK_AKFURNITURE_D2SNAP
 10
0.567926
 20
0.259936
 30
0
  0
VERTEX
  8
72_ARTEK_AKFURNITURE_D2SNAP
 10
0.566771
 20
0.262097
 30
0
  0
VERTEX
  8
72_ARTEK_AKFURNITURE_D2SNAP
 10
0.565216
 20
0.263991
 30
0
  0
VERTEX
  8
72_ARTEK_AKFURNITURE_D2SNAP
 10
0.563322
 20
0.265545
 30
0
  0
VERTEX
  8
72_ARTEK_AKFURNITURE_D2SNAP
 10
0.561161
 20
0.266701
 30
0
  0
VERTEX
  8
72_ARTEK_AKFURNITURE_D2SNAP
 10
0.558816
 20
0.267412
 30
0
  0
VERTEX
  8
72_ARTEK_AKFURNITURE_D2SNAP
 10
0.556378
 20
0.267652
 30
0
  0
VERTEX
  8
72_ARTEK_AKFURNITURE_D2SNAP
 10
0.553939
 20
0.267412
 30
0
  0
VERTEX
  8
72_ARTEK_AKFURNITURE_D2SNAP
 10
0.551594
 20
0.266701
 30
0
  0
VERTEX
  8
72_ARTEK_AKFURNITURE_D2SNAP
 10
0.549433
 20
0.265545
 30
0
  0
VERTEX
  8
72_ARTEK_AKFURNITURE_D2SNAP
 10
0.547539
 20
0.263991
 30
0
  0
VERTEX
  8
72_ARTEK_AKFURNITURE_D2SNAP
 10
0.545984
 20
0.262097
 30
0
  0
VERTEX
  8
72_ARTEK_AKFURNITURE_D2SNAP
 10
0.544829
 20
0.259936
 30
0
  0
VERTEX
  8
72_ARTEK_AKFURNITURE_D2SNAP
 10
0.544118
 20
0.257591
 30
0
  0
VERTEX
  8
72_ARTEK_AKFURNITURE_D2SNAP
 10
0.543878
 20
0.255152
 30
0
  0
VERTEX
  8
72_ARTEK_AKFURNITURE_D2SNAP
 10
0.544118
 20
0.252713
 30
0
  0
VERTEX
  8
72_ARTEK_AKFURNITURE_D2SNAP
 10
0.544829
 20
0.250369
 30
0
  0
VERTEX
  8
72_ARTEK_AKFURNITURE_D2SNAP
 10
0.545984
 20
0.248207
 30
0
  0
VERTEX
  8
72_ARTEK_AKFURNITURE_D2SNAP
 10
0.547539
 20
0.246313
 30
0
  0
VERTEX
  8
72_ARTEK_AKFURNITURE_D2SNAP
 10
0.549433
 20
0.244759
 30
0
  0
VERTEX
  8
72_ARTEK_AKFURNITURE_D2SNAP
 10
0.551594
 20
0.243604
 30
0
  0
VERTEX
  8
72_ARTEK_AKFURNITURE_D2SNAP
 10
0.553939
 20
0.242892
 30
0
  0
VERTEX
  8
72_ARTEK_AKFURNITURE_D2SNAP
 10
0.556378
 20
0.242652
 30
0
  0
VERTEX
  8
72_ARTEK_AKFURNITURE_D2SNAP
 10
0.558816
 20
0.242892
 30
0
  0
VERTEX
  8
72_ARTEK_AKFURNITURE_D2SNAP
 10
0.561161
 20
0.243604
 30
0
  0
VERTEX
  8
72_ARTEK_AKFURNITURE_D2SNAP
 10
0.563322
 20
0.244759
 30
0
  0
VERTEX
  8
72_ARTEK_AKFURNITURE_D2SNAP
 10
0.565216
 20
0.246313
 30
0
  0
VERTEX
  8
72_ARTEK_AKFURNITURE_D2SNAP
 10
0.566771
 20
0.248207
 30
0
  0
VERTEX
  8
72_ARTEK_AKFURNITURE_D2SNAP
 10
0.567926
 20
0.250369
 30
0
  0
VERTEX
  8
72_ARTEK_AKFURNITURE_D2SNAP
 10
0.568637
 20
0.252713
 30
0
  0
VERTEX
  8
72_ARTEK_AKFURNITURE_D2SNAP
 10
0.568878
 20
0.255152
 30
0
  0
SEQEND
  0
POLYLINE
  8
72_ARTEK_AKFURNITURE_D2SNAP
 66
     1
 70
     0
 10
0.0
 20
0.0
 30
0.0
  0
VERTEX
  8
72_ARTEK_AKFURNITURE_D2SNAP
 10
0.5387
 20
0.237474
 30
0
  0
VERTEX
  8
72_ARTEK_AKFURNITURE_D2SNAP
 10
0.574055
 20
0.27283
 30
0
  0
SEQEND
  0
POLYLINE
  8
72_ARTEK_AKFURNITURE_D2SNAP
 66
     1
 70
     0
 10
0.0
 20
0.0
 30
0.0
  0
VERTEX
  8
72_ARTEK_AKFURNITURE_D2SNAP
 10
0.5387
 20
0.27283
 30
0
  0
VERTEX
  8
72_ARTEK_AKFURNITURE_D2SNAP
 10
0.574055
 20
0.237474
 30
0
  0
SEQEND
  0
POLYLINE
  8
72_ARTEK_AKFURNITURE_D2_CH_BAC
 66
     1
 70
     0
 10
0.0
 20
0.0
 30
0.0
  0
VERTEX
  8
72_ARTEK_AKFURNITURE_D2_CH_BAC
 10
0.27326
 20
0.396438
 30
0
  0
VERTEX
  8
72_ARTEK_AKFURNITURE_D2_CH_BAC
 10
0.275378
 20
0.398369
 30
0
  0
VERTEX
  8
72_ARTEK_AKFURNITURE_D2_CH_BAC
 10
0.275378
 20
0.402166
 30
0
  0
VERTEX
  8
72_ARTEK_AKFURNITURE_D2_CH_BAC
 10
0.275378
 20
0.409759
 30
0
  0
VERTEX
  8
72_ARTEK_AKFURNITURE_D2_CH_BAC
 10
0.275378
 20
0.424946
 30
0
  0
VERTEX
  8
72_ARTEK_AKFURNITURE_D2_CH_BAC
 10
0.275378
 20
0.455321
 30
0
  0
VERTEX
  8
72_ARTEK_AKFURNITURE_D2_CH_BAC
 10
0.275378
 20
0.485695
 30
0
  0
VERTEX
  8
72_ARTEK_AKFURNITURE_D2_CH_BAC
 10
0.275378
 20
0.500882
 30
0
  0
VERTEX
  8
72_ARTEK_AKFURNITURE_D2_CH_BAC
 10
0.275378
 20
0.502781
 30
0
  0
VERTEX
  8
72_ARTEK_AKFURNITURE_D2_CH_BAC
 10
0.275368
 20
0.50371
 30
0
  0
VERTEX
  8
72_ARTEK_AKFURNITURE_D2_CH_BAC
 10
0.274602
 20
0.503146
 30
0
  0
VERTEX
  8
72_ARTEK_AKFURNITURE_D2_CH_BAC
 10
0.270409
 20
0.501125
 30
0
  0
VERTEX
  8
72_ARTEK_AKFURNITURE_D2_CH_BAC
 10
0.262733
 20
0.499428
 30
0
  0
VERTEX
  8
72_ARTEK_AKFURNITURE_D2_CH_BAC
 10
0.258054
 20
0.498892
 30
0
  0
VERTEX
  8
72_ARTEK_AKFURNITURE_D2_CH_BAC
 10
0.255039
 20
0.498791
 30
0
  0
VERTEX
  8
72_ARTEK_AKFURNITURE_D2_CH_BAC
 10
0.247881
 20
0.498738
 30
0
  0
VERTEX
  8
72_ARTEK_AKFURNITURE_D2_CH_BAC
 10
0.237369
 20
0.498665
 30
0
  0
VERTEX
  8
72_ARTEK_AKFURNITURE_D2_CH_BAC
 10
0.223847
 20
0.498534
 30
0
  0
VERTEX
  8
72_ARTEK_AKFURNITURE_D2_CH_BAC
 10
0.206456
 20
0.498352
 30
0
  0
VERTEX
  8
72_ARTEK_AKFURNITURE_D2_CH_BAC
 10
0.196147
 20
0.498243
 30
0
  0
VERTEX
  8
72_ARTEK_AKFURNITURE_D2_CH_BAC
 10
0.182927
 20
0.498118
 30
0
  0
VERTEX
  8
72_ARTEK_AKFURNITURE_D2_CH_BAC
 10
0.166067
 20
0.497976
 30
0
  0
VERTEX
  8
72_ARTEK_AKFURNITURE_D2_CH_BAC
 10
0.145565
 20
0.497817
 30
0
  0
VERTEX
  8
72_ARTEK_AKFURNITURE_D2_CH_BAC
 10
0.0989907
 20
0.497526
 30
0
  0
VERTEX
  8
72_ARTEK_AKFURNITURE_D2_CH_BAC
 10
0.052319
 20
0.497379
 30
0
  0
VERTEX
  8
72_ARTEK_AKFURNITURE_D2_CH_BAC
 10
0.0311887
 20
0.497344
 30
0
  0
VERTEX
  8
72_ARTEK_AKFURNITURE_D2_CH_BAC
 10
0.0133594
 20
0.497322
 30
0
  0
VERTEX
  8
72_ARTEK_AKFURNITURE_D2_CH_BAC
 10
-0.00116896
 20
0.497311
 30
0
  0
VERTEX
  8
72_ARTEK_AKFURNITURE_D2_CH_BAC
 10
-0.0137371
 20
0.497313
 30
0
  0
VERTEX
  8
72_ARTEK_AKFURNITURE_D2_CH_BAC
 10
-0.0291721
 20
0.497327
 30
0
  0
VERTEX
  8
72_ARTEK_AKFURNITURE_D2_CH_BAC
 10
-0.0479079
 20
0.497353
 30
0
  0
VERTEX
  8
72_ARTEK_AKFURNITURE_D2_CH_BAC
 10
-0.0699287
 20
0.497391
 30
0
  0
VERTEX
  8
72_ARTEK_AKFURNITURE_D2_CH_BAC
 10
-0.0932901
 20
0.497456
 30
0
  0
VERTEX
  8
72_ARTEK_AKFURNITURE_D2_CH_BAC
 10
-0.140013
 20
0.497696
 30
0
  0
VERTEX
  8
72_ARTEK_AKFURNITURE_D2_CH_BAC
 10
-0.162803
 20
0.497862
 30
0
  0
VERTEX
  8
72_ARTEK_AKFURNITURE_D2_CH_BAC
 10
-0.182305
 20
0.498016
 30
0
  0
VERTEX
  8
72_ARTEK_AKFURNITURE_D2_CH_BAC
 10
-0.198165
 20
0.498154
 30
0
  0
VERTEX
  8
72_ARTEK_AKFURNITURE_D2_CH_BAC
 10
-0.210385
 20
0.498274
 30
0
  0
VERTEX
  8
72_ARTEK_AKFURNITURE_D2_CH_BAC
 10
-0.229256
 20
0.498473
 30
0
  0
VERTEX
  8
72_ARTEK_AKFURNITURE_D2_CH_BAC
 10
-0.24408
 20
0.498624
 30
0
  0
VERTEX
  8
72_ARTEK_AKFURNITURE_D2_CH_BAC
 10
-0.255651
 20
0.498718
 30
0
  0
VERTEX
  8
72_ARTEK_AKFURNITURE_D2_CH_BAC
 10
-0.264163
 20
0.498766
 30
0
  0
VERTEX
  8
72_ARTEK_AKFURNITURE_D2_CH_BAC
 10
-0.268681
 20
0.498849
 30
0
  0
VERTEX
  8
72_ARTEK_AKFURNITURE_D2_CH_BAC
 10
-0.270061
 20
0.49897
 30
0
  0
VERTEX
  8
72_ARTEK_AKFURNITURE_D2_CH_BAC
 10
-0.272433
 20
0.499223
 30
0
  0
VERTEX
  8
72_ARTEK_AKFURNITURE_D2_CH_BAC
 10
-0.276858
 20
0.499873
 30
0
  0
VERTEX
  8
72_ARTEK_AKFURNITURE_D2_CH_BAC
 10
-0.283377
 20
0.501781
 30
0
  0
VERTEX
  8
72_ARTEK_AKFURNITURE_D2_CH_BAC
 10
-0.286853
 20
0.503894
 30
0
  0
VERTEX
  8
72_ARTEK_AKFURNITURE_D2_CH_BAC
 10
-0.28877
 20
0.506452
 30
0
  0
VERTEX
  8
72_ARTEK_AKFURNITURE_D2_CH_BAC
 10
-0.289622
 20
0.509386
 30
0
  0
VERTEX
  8
72_ARTEK_AKFURNITURE_D2_CH_BAC
 10
-0.289622
 20
0.500979
 30
0
  0
VERTEX
  8
72_ARTEK_AKFURNITURE_D2_CH_BAC
 10
-0.289622
 20
0.433718
 30
0
  0
VERTEX
  8
72_ARTEK_AKFURNITURE_D2_CH_BAC
 10
-0.289622
 20
0.416902
 30
0
  0
VERTEX
  8
72_ARTEK_AKFURNITURE_D2_CH_BAC
 10
-0.289622
 20
0.408495
 30
0
  0
VERTEX
  8
72_ARTEK_AKFURNITURE_D2_CH_BAC
 10
-0.289397
 20
0.404594
 30
0
  0
VERTEX
  8
72_ARTEK_AKFURNITURE_D2_CH_BAC
 10
-0.288899
 20
0.402065
 30
0
  0
VERTEX
  8
72_ARTEK_AKFURNITURE_D2_CH_BAC
 10
-0.287831
 20
0.399093
 30
0
  0
VERTEX
  8
72_ARTEK_AKFURNITURE_D2_CH_BAC
 10
-0.284528
 20
0.39645
 30
0
  0
VERTEX
  8
72_ARTEK_AKFURNITURE_D2_CH_BAC
 10
-0.280846
 20
0.395154
 30
0
  0
VERTEX
  8
72_ARTEK_AKFURNITURE_D2_CH_BAC
 10
-0.27534
 20
0.394096
 30
0
  0
VERTEX
  8
72_ARTEK_AKFURNITURE_D2_CH_BAC
 10
-0.26694
 20
0.393542
 30
0
  0
VERTEX
  8
72_ARTEK_AKFURNITURE_D2_CH_BAC
 10
-0.260561
 20
0.39353
 30
0
  0
VERTEX
  8
72_ARTEK_AKFURNITURE_D2_CH_BAC
 10
-0.248355
 20
0.393437
 30
0
  0
VERTEX
  8
72_ARTEK_AKFURNITURE_D2_CH_BAC
 10
-0.244169
 20
0.393396
 30
0
  0
VERTEX
  8
72_ARTEK_AKFURNITURE_D2_CH_BAC
 10
-0.238587
 20
0.393335
 30
0
  0
VERTEX
  8
72_ARTEK_AKFURNITURE_D2_CH_BAC
 10
-0.225346
 20
0.393182
 30
0
  0
VERTEX
  8
72_ARTEK_AKFURNITURE_D2_CH_BAC
 10
-0.211494
 20
0.393024
 30
0
  0
VERTEX
  8
72_ARTEK_AKFURNITURE_D2_CH_BAC
 10
-0.203614
 20
0.392938
 30
0
  0
VERTEX
  8
72_ARTEK_AKFURNITURE_D2_CH_BAC
 10
-0.194175
 20
0.39284
 30
0
  0
VERTEX
  8
72_ARTEK_AKFURNITURE_D2_CH_BAC
 10
-0.181401
 20
0.392717
 30
0
  0
VERTEX
  8
72_ARTEK_AKFURNITURE_D2_CH_BAC
 10
-0.165423
 20
0.39257
 30
0
  0
VERTEX
  8
72_ARTEK_AKFURNITURE_D2_CH_BAC
 10
-0.131949
 20
0.392318
 30
0
  0
VERTEX
  8
72_ARTEK_AKFURNITURE_D2_CH_BAC
 10
-0.0984747
 20
0.392148
 30
0
  0
VERTEX
  8
72_ARTEK_AKFURNITURE_D2_CH_BAC
 10
-0.0820341
 20
0.392095
 30
0
  0
VERTEX
  8
72_ARTEK_AKFURNITURE_D2_CH_BAC
 10
-0.0687464
 20
0.392058
 30
0
  0
VERTEX
  8
72_ARTEK_AKFURNITURE_D2_CH_BAC
 10
-0.0593281
 20
0.392038
 30
0
  0
VERTEX
  8
72_ARTEK_AKFURNITURE_D2_CH_BAC
 10
-0.0517265
 20
0.392028
 30
0
  0
VERTEX
  8
72_ARTEK_AKFURNITURE_D2_CH_BAC
 10
-0.0431781
 20
0.392022
 30
0
  0
VERTEX
  8
72_ARTEK_AKFURNITURE_D2_CH_BAC
 10
-0.0334691
 20
0.39202
 30
0
  0
VERTEX
  8
72_ARTEK_AKFURNITURE_D2_CH_BAC
 10
-0.0211441
 20
0.392019
 30
0
  0
VERTEX
  8
72_ARTEK_AKFURNITURE_D2_CH_BAC
 10
-0.00591125
 20
0.392019
 30
0
  0
VERTEX
  8
72_ARTEK_AKFURNITURE_D2_CH_BAC
 10
0.00942125
 20
0.392019
 30
0
  0
VERTEX
  8
72_ARTEK_AKFURNITURE_D2_CH_BAC
 10
0.0218467
 20
0.39202
 30
0
  0
VERTEX
  8
72_ARTEK_AKFURNITURE_D2_CH_BAC
 10
0.0316206
 20
0.392022
 30
0
  0
VERTEX
  8
72_ARTEK_AKFURNITURE_D2_CH_BAC
 10
0.0402022
 20
0.392028
 30
0
  0
VERTEX
  8
72_ARTEK_AKFURNITURE_D2_CH_BAC
 10
0.0478269
 20
0.392037
 30
0
  0
VERTEX
  8
72_ARTEK_AKFURNITURE_D2_CH_BAC
 10
0.0571114
 20
0.392057
 30
0
  0
VERTEX
  8
72_ARTEK_AKFURNITURE_D2_CH_BAC
 10
0.0702654
 20
0.392093
 30
0
  0
VERTEX
  8
72_ARTEK_AKFURNITURE_D2_CH_BAC
 10
0.0866514
 20
0.392146
 30
0
  0
VERTEX
  8
72_ARTEK_AKFURNITURE_D2_CH_BAC
 10
0.120125
 20
0.392314
 30
0
  0
VERTEX
  8
72_ARTEK_AKFURNITURE_D2_CH_BAC
 10
0.1536
 20
0.392565
 30
0
  0
VERTEX
  8
72_ARTEK_AKFURNITURE_D2_CH_BAC
 10
0.169654
 20
0.392712
 30
0
  0
VERTEX
  8
72_ARTEK_AKFURNITURE_D2_CH_BAC
 10
0.182545
 20
0.392836
 30
0
  0
VERTEX
  8
72_ARTEK_AKFURNITURE_D2_CH_BAC
 10
0.192085
 20
0.392935
 30
0
  0
VERTEX
  8
72_ARTEK_AKFURNITURE_D2_CH_BAC
 10
0.199989
 20
0.393021
 30
0
  0
VERTEX
  8
72_ARTEK_AKFURNITURE_D2_CH_BAC
 10
0.213871
 20
0.393179
 30
0
  0
VERTEX
  8
72_ARTEK_AKFURNITURE_D2_CH_BAC
 10
0.227124
 20
0.393333
 30
0
  0
VERTEX
  8
72_ARTEK_AKFURNITURE_D2_CH_BAC
 10
0.232755
 20
0.393394
 30
0
  0
VERTEX
  8
72_ARTEK_AKFURNITURE_D2_CH_BAC
 10
0.236989
 20
0.393435
 30
0
  0
VERTEX
  8
72_ARTEK_AKFURNITURE_D2_CH_BAC
 10
0.249237
 20
0.39353
 30
0
  0
VERTEX
  8
72_ARTEK_AKFURNITURE_D2_CH_BAC
 10
0.255639
 20
0.393541
 30
0
  0
VERTEX
  8
72_ARTEK_AKFURNITURE_D2_CH_BAC
 10
0.264035
 20
0.394089
 30
0
  0
VERTEX
  8
72_ARTEK_AKFURNITURE_D2_CH_BAC
 10
0.269561
 20
0.395143
 30
0
  0
VERTEX
  8
72_ARTEK_AKFURNITURE_D2_CH_BAC
 10
0.27326
 20
0.396438
 30
0
  0
SEQEND
  0
POLYLINE
  8
72_ARTEK_AKFURNITURE_D2_CH_BAC
 66
     1
 70
     0
 10
0.0
 20
0.0
 30
0.0
  0
VERTEX
  8
72_ARTEK_AKFURNITURE_D2_CH_BAC
 10
0.275378
 20
0.503718
 30
0
  0
VERTEX
  8
72_ARTEK_AKFURNITURE_D2_CH_BAC
 10
0.275378
 20
0.558574
 30
0
  0
VERTEX
  8
72_ARTEK_AKFURNITURE_D2_CH_BAC
 10
0.275378
 20
0.586002
 30
0
  0
VERTEX
  8
72_ARTEK_AKFURNITURE_D2_CH_BAC
 10
0.275378
 20
0.599716
 30
0
  0
VERTEX
  8
72_ARTEK_AKFURNITURE_D2_CH_BAC
 10
0.275219
 20
0.603067
 30
0
  0
VERTEX
  8
72_ARTEK_AKFURNITURE_D2_CH_BAC
 10
0.272024
 20
0.604981
 30
0
  0
VERTEX
  8
72_ARTEK_AKFURNITURE_D2_CH_BAC
 10
0.269506
 20
0.6059
 30
0
  0
VERTEX
  8
72_ARTEK_AKFURNITURE_D2_CH_BAC
 10
0.264422
 20
0.607106
 30
0
  0
VERTEX
  8
72_ARTEK_AKFURNITURE_D2_CH_BAC
 10
0.255433
 20
0.60804
 30
0
  0
VERTEX
  8
72_ARTEK_AKFURNITURE_D2_CH_BAC
 10
0.25176
 20
0.608041
 30
0
  0
VERTEX
  8
72_ARTEK_AKFURNITURE_D2_CH_BAC
 10
0.246235
 20
0.608069
 30
0
  0
VERTEX
  8
72_ARTEK_AKFURNITURE_D2_CH_BAC
 10
0.238257
 20
0.608132
 30
0
  0
VERTEX
  8
72_ARTEK_AKFURNITURE_D2_CH_BAC
 10
0.233403
 20
0.608176
 30
0
  0
VERTEX
  8
72_ARTEK_AKFURNITURE_D2_CH_BAC
 10
0.226383
 20
0.608253
 30
0
  0
VERTEX
  8
72_ARTEK_AKFURNITURE_D2_CH_BAC
 10
0.221792
 20
0.608305
 30
0
  0
VERTEX
  8
72_ARTEK_AKFURNITURE_D2_CH_BAC
 10
0.215889
 20
0.608371
 30
0
  0
VERTEX
  8
72_ARTEK_AKFURNITURE_D2_CH_BAC
 10
0.208664
 20
0.608451
 30
0
  0
VERTEX
  8
72_ARTEK_AKFURNITURE_D2_CH_BAC
 10
0.200116
 20
0.608545
 30
0
  0
VERTEX
  8
72_ARTEK_AKFURNITURE_D2_CH_BAC
 10
0.160563
 20
0.608942
 30
0
  0
VERTEX
  8
72_ARTEK_AKFURNITURE_D2_CH_BAC
 10
0.0769019
 20
0.609462
 30
0
  0
VERTEX
  8
72_ARTEK_AKFURNITURE_D2_CH_BAC
 10
-0.0904225
 20
0.609455
 30
0
  0
VERTEX
  8
72_ARTEK_AKFURNITURE_D2_CH_BAC
 10
-0.174073
 20
0.608922
 30
0
  0
VERTEX
  8
72_ARTEK_AKFURNITURE_D2_CH_BAC
 10
-0.19428
 20
0.608726
 30
0
  0
VERTEX
  8
72_ARTEK_AKFURNITURE_D2_CH_BAC
 10
-0.213334
 20
0.608524
 30
0
  0
VERTEX
  8
72_ARTEK_AKFURNITURE_D2_CH_BAC
 10
-0.221594
 20
0.608432
 30
0
  0
VERTEX
  8
72_ARTEK_AKFURNITURE_D2_CH_BAC
 10
-0.228531
 20
0.608355
 30
0
  0
VERTEX
  8
72_ARTEK_AKFURNITURE_D2_CH_BAC
 10
-0.234146
 20
0.608292
 30
0
  0
VERTEX
  8
72_ARTEK_AKFURNITURE_D2_CH_BAC
 10
-0.238497
 20
0.608243
 30
0
  0
VERTEX
  8
72_ARTEK_AKFURNITURE_D2_CH_BAC
 10
-0.24528
 20
0.60817
 30
0
  0
VERTEX
  8
72_ARTEK_AKFURNITURE_D2_CH_BAC
 10
-0.249936
 20
0.608128
 30
0
  0
VERTEX
  8
72_ARTEK_AKFURNITURE_D2_CH_BAC
 10
-0.257892
 20
0.608066
 30
0
  0
VERTEX
  8
72_ARTEK_AKFURNITURE_D2_CH_BAC
 10
-0.263205
 20
0.608041
 30
0
  0
VERTEX
  8
72_ARTEK_AKFURNITURE_D2_CH_BAC
 10
-0.266868
 20
0.608039
 30
0
  0
VERTEX
  8
72_ARTEK_AKFURNITURE_D2_CH_BAC
 10
-0.27579
 20
0.607086
 30
0
  0
VERTEX
  8
72_ARTEK_AKFURNITURE_D2_CH_BAC
 10
-0.280827
 20
0.605875
 30
0
  0
VERTEX
  8
72_ARTEK_AKFURNITURE_D2_CH_BAC
 10
-0.283321
 20
0.604957
 30
0
  0
VERTEX
  8
72_ARTEK_AKFURNITURE_D2_CH_BAC
 10
-0.286501
 20
0.603038
 30
0
  0
VERTEX
  8
72_ARTEK_AKFURNITURE_D2_CH_BAC
 10
-0.288375
 20
0.600717
 30
0
  0
VERTEX
  8
72_ARTEK_AKFURNITURE_D2_CH_BAC
 10
-0.288542
 20
0.599137
 30
0
  0
VERTEX
  8
72_ARTEK_AKFURNITURE_D2_CH_BAC
 10
-0.289332
 20
0.596951
 30
0
  0
VERTEX
  8
72_ARTEK_AKFURNITURE_D2_CH_BAC
 10
-0.289622
 20
0.592582
 30
0
  0
VERTEX
  8
72_ARTEK_AKFURNITURE_D2_CH_BAC
 10
-0.289622
 20
0.584604
 30
0
  0
VERTEX
  8
72_ARTEK_AKFURNITURE_D2_CH_BAC
 10
-0.289622
 20
0.552695
 30
0
  0
VERTEX
  8
72_ARTEK_AKFURNITURE_D2_CH_BAC
 10
-0.289622
 20
0.520786
 30
0
  0
VERTEX
  8
72_ARTEK_AKFURNITURE_D2_CH_BAC
 10
-0.289622
 20
0.512808
 30
0
  0
VERTEX
  8
72_ARTEK_AKFURNITURE_D2_CH_BAC
 10
-0.289494
 20
0.509004
 30
0
  0
VERTEX
  8
72_ARTEK_AKFURNITURE_D2_CH_BAC
 10
-0.289041
 20
0.507041
 30
0
  0
VERTEX
  8
72_ARTEK_AKFURNITURE_D2_CH_BAC
 10
-0.287597
 20
0.504588
 30
0
  0
VERTEX
  8
72_ARTEK_AKFURNITURE_D2_CH_BAC
 10
-0.28476
 20
0.502454
 30
0
  0
VERTEX
  8
72_ARTEK_AKFURNITURE_D2_CH_BAC
 10
-0.279851
 20
0.500565
 30
0
  0
VERTEX
  8
72_ARTEK_AKFURNITURE_D2_CH_BAC
 10
-0.271871
 20
0.499158
 30
0
  0
VERTEX
  8
72_ARTEK_AKFURNITURE_D2_CH_BAC
 10
-0.269607
 20
0.498923
 30
0
  0
VERTEX
  8
72_ARTEK_AKFURNITURE_D2_CH_BAC
 10
-0.267657
 20
0.498817
 30
0
  0
VERTEX
  8
72_ARTEK_AKFURNITURE_D2_CH_BAC
 10
-0.262172
 20
0.498752
 30
0
  0
VERTEX
  8
72_ARTEK_AKFURNITURE_D2_CH_BAC
 10
-0.25329
 20
0.498702
 30
0
  0
VERTEX
  8
72_ARTEK_AKFURNITURE_D2_CH_BAC
 10
-0.241756
 20
0.498601
 30
0
  0
VERTEX
  8
72_ARTEK_AKFURNITURE_D2_CH_BAC
 10
-0.227141
 20
0.498451
 30
0
  0
VERTEX
  8
72_ARTEK_AKFURNITURE_D2_CH_BAC
 10
-0.208836
 20
0.498258
 30
0
  0
VERTEX
  8
72_ARTEK_AKFURNITURE_D2_CH_BAC
 10
-0.196829
 20
0.498142
 30
0
  0
VERTEX
  8
72_ARTEK_AKFURNITURE_D2_CH_BAC
 10
-0.181543
 20
0.49801
 30
0
  0
VERTEX
  8
72_ARTEK_AKFURNITURE_D2_CH_BAC
 10
-0.16298
 20
0.497863
 30
0
  0
VERTEX
  8
72_ARTEK_AKFURNITURE_D2_CH_BAC
 10
-0.141402
 20
0.497705
 30
0
  0
VERTEX
  8
72_ARTEK_AKFURNITURE_D2_CH_BAC
 10
-0.0534087
 20
0.497362
 30
0
  0
VERTEX
  8
72_ARTEK_AKFURNITURE_D2_CH_BAC
 10
-0.0347241
 20
0.497334
 30
0
  0
VERTEX
  8
72_ARTEK_AKFURNITURE_D2_CH_BAC
 10
-0.0190113
 20
0.497316
 30
0
  0
VERTEX
  8
72_ARTEK_AKFURNITURE_D2_CH_BAC
 10
0.00613629
 20
0.497315
 30
0
  0
VERTEX
  8
72_ARTEK_AKFURNITURE_D2_CH_BAC
 10
0.0215045
 20
0.497331
 30
0
  0
VERTEX
  8
72_ARTEK_AKFURNITURE_D2_CH_BAC
 10
0.0398444
 20
0.497358
 30
0
  0
VERTEX
  8
72_ARTEK_AKFURNITURE_D2_CH_BAC
 10
0.0610889
 20
0.497396
 30
0
  0
VERTEX
  8
72_ARTEK_AKFURNITURE_D2_CH_BAC
 10
0.0832547
 20
0.49746
 30
0
  0
VERTEX
  8
72_ARTEK_AKFURNITURE_D2_CH_BAC
 10
0.127586
 20
0.497688
 30
0
  0
VERTEX
  8
72_ARTEK_AKFURNITURE_D2_CH_BAC
 10
0.14937
 20
0.497845
 30
0
  0
VERTEX
  8
72_ARTEK_AKFURNITURE_D2_CH_BAC
 10
0.168313
 20
0.497994
 30
0
  0
VERTEX
  8
72_ARTEK_AKFURNITURE_D2_CH_BAC
 10
0.183979
 20
0.498127
 30
0
  0
VERTEX
  8
72_ARTEK_AKFURNITURE_D2_CH_BAC
 10
0.196367
 20
0.498245
 30
0
  0
VERTEX
  8
72_ARTEK_AKFURNITURE_D2_CH_BAC
 10
0.214936
 20
0.498441
 30
0
  0
VERTEX
  8
72_ARTEK_AKFURNITURE_D2_CH_BAC
 10
0.229761
 20
0.498594
 30
0
  0
VERTEX
  8
72_ARTEK_AKFURNITURE_D2_CH_BAC
 10
0.241448
 20
0.498698
 30
0
  0
VERTEX
  8
72_ARTEK_AKFURNITURE_D2_CH_BAC
 10
0.250494
 20
0.49875
 30
0
  0
VERTEX
  8
72_ARTEK_AKFURNITURE_D2_CH_BAC
 10
0.256197
 20
0.498812
 30
0
  0
VERTEX
  8
72_ARTEK_AKFURNITURE_D2_CH_BAC
 10
0.258296
 20
0.498916
 30
0
  0
VERTEX
  8
72_ARTEK_AKFURNITURE_D2_CH_BAC
 10
0.25943
 20
0.499033
 30
0
  0
VERTEX
  8
72_ARTEK_AKFURNITURE_D2_CH_BAC
 10
0.261661
 20
0.499282
 30
0
  0
VERTEX
  8
72_ARTEK_AKFURNITURE_D2_CH_BAC
 10
0.26582
 20
0.499917
 30
0
  0
VERTEX
  8
72_ARTEK_AKFURNITURE_D2_CH_BAC
 10
0.272023
 20
0.501731
 30
0
  0
VERTEX
  8
72_ARTEK_AKFURNITURE_D2_CH_BAC
 10
0.275378
 20
0.503718
 30
0
  0
SEQEND
  0
POLYLINE
  8
72_ARTEK_AKFURNITURE_D2_CH_BAC
 66
     1
 70
     0
 10
0.0
 20
0.0
 30
0.0
  0
VERTEX
  8
72_ARTEK_AKFURNITURE_D2_CH_BAC
 10
0.837702
 20
0.50347
 30
0
  0
VERTEX
  8
72_ARTEK_AKFURNITURE_D2_CH_BAC
 10
0.837378
 20
0.443679
 30
0
  0
VERTEX
  8
72_ARTEK_AKFURNITURE_D2_CH_BAC
 10
0.837378
 20
0.413456
 30
0
  0
VERTEX
  8
72_ARTEK_AKFURNITURE_D2_CH_BAC
 10
0.837378
 20
0.398344
 30
0
  0
VERTEX
  8
72_ARTEK_AKFURNITURE_D2_CH_BAC
 10
0.839498
 20
0.396437
 30
0
  0
VERTEX
  8
72_ARTEK_AKFURNITURE_D2_CH_BAC
 10
0.84193
 20
0.395507
 30
0
  0
VERTEX
  8
72_ARTEK_AKFURNITURE_D2_CH_BAC
 10
0.849694
 20
0.393985
 30
0
  0
VERTEX
  8
72_ARTEK_AKFURNITURE_D2_CH_BAC
 10
0.856001
 20
0.39357
 30
0
  0
VERTEX
  8
72_ARTEK_AKFURNITURE_D2_CH_BAC
 10
0.860387
 20
0.393537
 30
0
  0
VERTEX
  8
72_ARTEK_AKFURNITURE_D2_CH_BAC
 10
0.862704
 20
0.393534
 30
0
  0
VERTEX
  8
72_ARTEK_AKFURNITURE_D2_CH_BAC
 10
0.866298
 20
0.393512
 30
0
  0
VERTEX
  8
72_ARTEK_AKFURNITURE_D2_CH_BAC
 10
0.875366
 20
0.393439
 30
0
  0
VERTEX
  8
72_ARTEK_AKFURNITURE_D2_CH_BAC
 10
0.881566
 20
0.393378
 30
0
  0
VERTEX
  8
72_ARTEK_AKFURNITURE_D2_CH_BAC
 10
0.890407
 20
0.393277
 30
0
  0
VERTEX
  8
72_ARTEK_AKFURNITURE_D2_CH_BAC
 10
0.909541
 20
0.393057
 30
0
  0
VERTEX
  8
72_ARTEK_AKFURNITURE_D2_CH_BAC
 10
0.920541
 20
0.392936
 30
0
  0
VERTEX
  8
72_ARTEK_AKFURNITURE_D2_CH_BAC
 10
0.926945
 20
0.392869
 30
0
  0
VERTEX
  8
72_ARTEK_AKFURNITURE_D2_CH_BAC
 10
0.935014
 20
0.392789
 30
0
  0
VERTEX
  8
72_ARTEK_AKFURNITURE_D2_CH_BAC
 10
0.944791
 20
0.392696
 30
0
  0
VERTEX
  8
72_ARTEK_AKFURNITURE_D2_CH_BAC
 10
0.956215
 20
0.392591
 30
0
  0
VERTEX
  8
72_ARTEK_AKFURNITURE_D2_CH_BAC
 10
0.979982
 20
0.392399
 30
0
  0
VERTEX
  8
72_ARTEK_AKFURNITURE_D2_CH_BAC
 10
1.02752
 20
0.392141
 30
0
  0
VERTEX
  8
72_ARTEK_AKFURNITURE_D2_CH_BAC
 10
1.0393
 20
0.392103
 30
0
  0
VERTEX
  8
72_ARTEK_AKFURNITURE_D2_CH_BAC
 10
1.04961
 20
0.392073
 30
0
  0
VERTEX
  8
72_ARTEK_AKFURNITURE_D2_CH_BAC
 10
1.05796
 20
0.392051
 30
0
  0
VERTEX
  8
72_ARTEK_AKFURNITURE_D2_CH_BAC
 10
1.06436
 20
0.392038
 30
0
  0
VERTEX
  8
72_ARTEK_AKFURNITURE_D2_CH_BAC
 10
1.0754
 20
0.392025
 30
0
  0
VERTEX
  8
72_ARTEK_AKFURNITURE_D2_CH_BAC
 10
1.0884
 20
0.39202
 30
0
  0
VERTEX
  8
72_ARTEK_AKFURNITURE_D2_CH_BAC
 10
1.09644
 20
0.392019
 30
0
  0
VERTEX
  8
72_ARTEK_AKFURNITURE_D2_CH_BAC
 10
1.10594
 20
0.392019
 30
0
  0
VERTEX
  8
72_ARTEK_AKFURNITURE_D2_CH_BAC
 10
1.12822
 20
0.392019
 30
0
  0
VERTEX
  8
72_ARTEK_AKFURNITURE_D2_CH_BAC
 10
1.13809
 20
0.392019
 30
0
  0
VERTEX
  8
72_ARTEK_AKFURNITURE_D2_CH_BAC
 10
1.14649
 20
0.39202
 30
0
  0
VERTEX
  8
72_ARTEK_AKFURNITURE_D2_CH_BAC
 10
1.15985
 20
0.392024
 30
0
  0
VERTEX
  8
72_ARTEK_AKFURNITURE_D2_CH_BAC
 10
1.1711
 20
0.392036
 30
0
  0
VERTEX
  8
72_ARTEK_AKFURNITURE_D2_CH_BAC
 10
1.17702
 20
0.392047
 30
0
  0
VERTEX
  8
72_ARTEK_AKFURNITURE_D2_CH_BAC
 10
1.18489
 20
0.392067
 30
0
  0
VERTEX
  8
72_ARTEK_AKFURNITURE_D2_CH_BAC
 10
1.1947
 20
0.392094
 30
0
  0
VERTEX
  8
72_ARTEK_AKFURNITURE_D2_CH_BAC
 10
1.20628
 20
0.392131
 30
0
  0
VERTEX
  8
72_ARTEK_AKFURNITURE_D2_CH_BAC
 10
1.23005
 20
0.392233
 30
0
  0
VERTEX
  8
72_ARTEK_AKFURNITURE_D2_CH_BAC
 10
1.27758
 20
0.392565
 30
0
  0
VERTEX
  8
72_ARTEK_AKFURNITURE_D2_CH_BAC
 10
1.28927
 20
0.392671
 30
0
  0
VERTEX
  8
72_ARTEK_AKFURNITURE_D2_CH_BAC
 10
1.29947
 20
0.392767
 30
0
  0
VERTEX
  8
72_ARTEK_AKFURNITURE_D2_CH_BAC
 10
1.30796
 20
0.392851
 30
0
  0
VERTEX
  8
72_ARTEK_AKFURNITURE_D2_CH_BAC
 10
1.31475
 20
0.392921
 30
0
  0
VERTEX
  8
72_ARTEK_AKFURNITURE_D2_CH_BAC
 10
1.32592
 20
0.393043
 30
0
  0
VERTEX
  8
72_ARTEK_AKFURNITURE_D2_CH_BAC
 10
1.33574
 20
0.393155
 30
0
  0
VERTEX
  8
72_ARTEK_AKFURNITURE_D2_CH_BAC
 10
1.35422
 20
0.393367
 30
0
  0
VERTEX
  8
72_ARTEK_AKFURNITURE_D2_CH_BAC
 10
1.36077
 20
0.393434
 30
0
  0
VERTEX
  8
72_ARTEK_AKFURNITURE_D2_CH_BAC
 10
1.36537
 20
0.393471
 30
0
  0
VERTEX
  8
72_ARTEK_AKFURNITURE_D2_CH_BAC
 10
1.37368
 20
0.393532
 30
0
  0
VERTEX
  8
72_ARTEK_AKFURNITURE_D2_CH_BAC
 10
1.3782
 20
0.393537
 30
0
  0
VERTEX
  8
72_ARTEK_AKFURNITURE_D2_CH_BAC
 10
1.38919
 20
0.394239
 30
0
  0
VERTEX
  8
72_ARTEK_AKFURNITURE_D2_CH_BAC
 10
1.39601
 20
0.395908
 30
0
  0
VERTEX
  8
72_ARTEK_AKFURNITURE_D2_CH_BAC
 10
1.40061
 20
0.399124
 30
0
  0
VERTEX
  8
72_ARTEK_AKFURNITURE_D2_CH_BAC
 10
1.40138
 20
0.400908
 30
0
  0
VERTEX
  8
72_ARTEK_AKFURNITURE_D2_CH_BAC
 10
1.40207
 20
0.404129
 30
0
  0
VERTEX
  8
72_ARTEK_AKFURNITURE_D2_CH_BAC
 10
1.40238
 20
0.499177
 30
0
  0
VERTEX
  8
72_ARTEK_AKFURNITURE_D2_CH_BAC
 10
1.40238
 20
0.505146
 30
0
  0
VERTEX
  8
72_ARTEK_AKFURNITURE_D2_CH_BAC
 10
1.40238
 20
0.508131
 30
0
  0
VERTEX
  8
72_ARTEK_AKFURNITURE_D2_CH_BAC
 10
1.40238
 20
0.509623
 30
0
  0
VERTEX
  8
72_ARTEK_AKFURNITURE_D2_CH_BAC
 10
1.40237
 20
0.51028
 30
0
  0
VERTEX
  8
72_ARTEK_AKFURNITURE_D2_CH_BAC
 10
1.40231
 20
0.509585
 30
0
  0
VERTEX
  8
72_ARTEK_AKFURNITURE_D2_CH_BAC
 10
1.40163
 20
0.506645
 30
0
  0
VERTEX
  8
72_ARTEK_AKFURNITURE_D2_CH_BAC
 10
1.40054
 20
0.504812
 30
0
  0
VERTEX
  8
72_ARTEK_AKFURNITURE_D2_CH_BAC
 10
1.39593
 20
0.50169
 30
0
  0
VERTEX
  8
72_ARTEK_AKFURNITURE_D2_CH_BAC
 10
1.39153
 20
0.500302
 30
0
  0
VERTEX
  8
72_ARTEK_AKFURNITURE_D2_CH_BAC
 10
1.3855
 20
0.499262
 30
0
  0
VERTEX
  8
72_ARTEK_AKFURNITURE_D2_CH_BAC
 10
1.38214
 20
0.4989
 30
0
  0
VERTEX
  8
72_ARTEK_AKFURNITURE_D2_CH_BAC
 10
1.38061
 20
0.498822
 30
0
  0
VERTEX
  8
72_ARTEK_AKFURNITURE_D2_CH_BAC
 10
1.37701
 20
0.498767
 30
0
  0
VERTEX
  8
72_ARTEK_AKFURNITURE_D2_CH_BAC
 10
1.37135
 20
0.498735
 30
0
  0
VERTEX
  8
72_ARTEK_AKFURNITURE_D2_CH_BAC
 10
1.36406
 20
0.498687
 30
0
  0
VERTEX
  8
72_ARTEK_AKFURNITURE_D2_CH_BAC
 10
1.35531
 20
0.498609
 30
0
  0
VERTEX
  8
72_ARTEK_AKFURNITURE_D2_CH_BAC
 10
1.34488
 20
0.498503
 30
0
  0
VERTEX
  8
72_ARTEK_AKFURNITURE_D2_CH_BAC
 10
1.33241
 20
0.498373
 30
0
  0
VERTEX
  8
72_ARTEK_AKFURNITURE_D2_CH_BAC
 10
1.31759
 20
0.498217
 30
0
  0
VERTEX
  8
72_ARTEK_AKFURNITURE_D2_CH_BAC
 10
1.30802
 20
0.498127
 30
0
  0
VERTEX
  8
72_ARTEK_AKFURNITURE_D2_CH_BAC
 10
1.29661
 20
0.498029
 30
0
  0
VERTEX
  8
72_ARTEK_AKFURNITURE_D2_CH_BAC
 10
1.28337
 20
0.497922
 30
0
  0
VERTEX
  8
72_ARTEK_AKFURNITURE_D2_CH_BAC
 10
1.26829
 20
0.497807
 30
0
  0
VERTEX
  8
72_ARTEK_AKFURNITURE_D2_CH_BAC
 10
1.20204
 20
0.497442
 30
0
  0
VERTEX
  8
72_ARTEK_AKFURNITURE_D2_CH_BAC
 10
1.16926
 20
0.497367
 30
0
  0
VERTEX
  8
72_ARTEK_AKFURNITURE_D2_CH_BAC
 10
1.15466
 20
0.497344
 30
0
  0
VERTEX
  8
72_ARTEK_AKFURNITURE_D2_CH_BAC
 10
1.14173
 20
0.497326
 30
0
  0
VERTEX
  8
72_ARTEK_AKFURNITURE_D2_CH_BAC
 10
1.13046
 20
0.497315
 30
0
  0
VERTEX
  8
72_ARTEK_AKFURNITURE_D2_CH_BAC
 10
1.12085
 20
0.497311
 30
0
  0
VERTEX
  8
72_ARTEK_AKFURNITURE_D2_CH_BAC
 10
1.11207
 20
0.497312
 30
0
  0
VERTEX
  8
72_ARTEK_AKFURNITURE_D2_CH_BAC
 10
1.10176
 20
0.497319
 30
0
  0
VERTEX
  8
72_ARTEK_AKFURNITURE_D2_CH_BAC
 10
1.08979
 20
0.497333
 30
0
  0
VERTEX
  8
72_ARTEK_AKFURNITURE_D2_CH_BAC
 10
1.07615
 20
0.497353
 30
0
  0
VERTEX
  8
72_ARTEK_AKFURNITURE_D2_CH_BAC
 10
1.06085
 20
0.497378
 30
0
  0
VERTEX
  8
72_ARTEK_AKFURNITURE_D2_CH_BAC
 10
1.04433
 20
0.497414
 30
0
  0
VERTEX
  8
72_ARTEK_AKFURNITURE_D2_CH_BAC
 10
0.977982
 20
0.497737
 30
0
  0
VERTEX
  8
72_ARTEK_AKFURNITURE_D2_CH_BAC
 10
0.961901
 20
0.497857
 30
0
  0
VERTEX
  8
72_ARTEK_AKFURNITURE_D2_CH_BAC
 10
0.947595
 20
0.497968
 30
0
  0
VERTEX
  8
72_ARTEK_AKFURNITURE_D2_CH_BAC
 10
0.935124
 20
0.498072
 30
0
  0
VERTEX
  8
72_ARTEK_AKFURNITURE_D2_CH_BAC
 10
0.924489
 20
0.498166
 30
0
  0
VERTEX
  8
72_ARTEK_AKFURNITURE_D2_CH_BAC
 10
0.915689
 20
0.498252
 30
0
  0
VERTEX
  8
72_ARTEK_AKFURNITURE_D2_CH_BAC
 10
0.908345
 20
0.49833
 30
0
  0
VERTEX
  8
72_ARTEK_AKFURNITURE_D2_CH_BAC
 10
0.895275
 20
0.498468
 30
0
  0
VERTEX
  8
72_ARTEK_AKFURNITURE_D2_CH_BAC
 10
0.884263
 20
0.498581
 30
0
  0
VERTEX
  8
72_ARTEK_AKFURNITURE_D2_CH_BAC
 10
0.875077
 20
0.498667
 30
0
  0
VERTEX
  8
72_ARTEK_AKFURNITURE_D2_CH_BAC
 10
0.867367
 20
0.498724
 30
0
  0
VERTEX
  8
72_ARTEK_AKFURNITURE_D2_CH_BAC
 10
0.861177
 20
0.498756
 30
0
  0
VERTEX
  8
72_ARTEK_AKFURNITURE_D2_CH_BAC
 10
0.856973
 20
0.498803
 30
0
  0
VERTEX
  8
72_ARTEK_AKFURNITURE_D2_CH_BAC
 10
0.854871
 20
0.498875
 30
0
  0
VERTEX
  8
72_ARTEK_AKFURNITURE_D2_CH_BAC
 10
0.853164
 20
0.499049
 30
0
  0
VERTEX
  8
72_ARTEK_AKFURNITURE_D2_CH_BAC
 10
0.849881
 20
0.499448
 30
0
  0
VERTEX
  8
72_ARTEK_AKFURNITURE_D2_CH_BAC
 10
0.844097
 20
0.500579
 30
0
  0
VERTEX
  8
72_ARTEK_AKFURNITURE_D2_CH_BAC
 10
0.840162
 20
0.50199
 30
0
  0
VERTEX
  8
72_ARTEK_AKFURNITURE_D2_CH_BAC
 10
0.837702
 20
0.50347
 30
0
  0
SEQEND
  0
POLYLINE
  8
72_ARTEK_AKFURNITURE_D2_CH_BAC
 66
     1
 70
     0
 10
0.0
 20
0.0
 30
0.0
  0
VERTEX
  8
72_ARTEK_AKFURNITURE_D2_CH_BAC
 10
0.837695
 20
0.603191
 30
0
  0
VERTEX
  8
72_ARTEK_AKFURNITURE_D2_CH_BAC
 10
0.837378
 20
0.54697
 30
0
  0
VERTEX
  8
72_ARTEK_AKFURNITURE_D2_CH_BAC
 10
0.837378
 20
0.518782
 30
0
  0
VERTEX
  8
72_ARTEK_AKFURNITURE_D2_CH_BAC
 10
0.837378
 20
0.504688
 30
0
  0
VERTEX
  8
72_ARTEK_AKFURNITURE_D2_CH_BAC
 10
0.838012
 20
0.503243
 30
0
  0
VERTEX
  8
72_ARTEK_AKFURNITURE_D2_CH_BAC
 10
0.839555
 20
0.502278
 30
0
  0
VERTEX
  8
72_ARTEK_AKFURNITURE_D2_CH_BAC
 10
0.844621
 20
0.500443
 30
0
  0
VERTEX
  8
72_ARTEK_AKFURNITURE_D2_CH_BAC
 10
0.852553
 20
0.499112
 30
0
  0
VERTEX
  8
72_ARTEK_AKFURNITURE_D2_CH_BAC
 10
0.854771
 20
0.498884
 30
0
  0
VERTEX
  8
72_ARTEK_AKFURNITURE_D2_CH_BAC
 10
0.857648
 20
0.498792
 30
0
  0
VERTEX
  8
72_ARTEK_AKFURNITURE_D2_CH_BAC
 10
0.864111
 20
0.498742
 30
0
  0
VERTEX
  8
72_ARTEK_AKFURNITURE_D2_CH_BAC
 10
0.873537
 20
0.49868
 30
0
  0
VERTEX
  8
72_ARTEK_AKFURNITURE_D2_CH_BAC
 10
0.885494
 20
0.498568
 30
0
  0
VERTEX
  8
72_ARTEK_AKFURNITURE_D2_CH_BAC
 10
0.900627
 20
0.498412
 30
0
  0
VERTEX
  8
72_ARTEK_AKFURNITURE_D2_CH_BAC
 10
0.909512
 20
0.498318
 30
0
  0
VERTEX
  8
72_ARTEK_AKFURNITURE_D2_CH_BAC
 10
0.919611
 20
0.498213
 30
0
  0
VERTEX
  8
72_ARTEK_AKFURNITURE_D2_CH_BAC
 10
0.932613
 20
0.498093
 30
0
  0
VERTEX
  8
72_ARTEK_AKFURNITURE_D2_CH_BAC
 10
0.948751
 20
0.497959
 30
0
  0
VERTEX
  8
72_ARTEK_AKFURNITURE_D2_CH_BAC
 10
0.968024
 20
0.49781
 30
0
  0
VERTEX
  8
72_ARTEK_AKFURNITURE_D2_CH_BAC
 10
0.989592
 20
0.497659
 30
0
  0
VERTEX
  8
72_ARTEK_AKFURNITURE_D2_CH_BAC
 10
1.03295
 20
0.497448
 30
0
  0
VERTEX
  8
72_ARTEK_AKFURNITURE_D2_CH_BAC
 10
1.05463
 20
0.49739
 30
0
  0
VERTEX
  8
72_ARTEK_AKFURNITURE_D2_CH_BAC
 10
1.07511
 20
0.497354
 30
0
  0
VERTEX
  8
72_ARTEK_AKFURNITURE_D2_CH_BAC
 10
1.09275
 20
0.497329
 30
0
  0
VERTEX
  8
72_ARTEK_AKFURNITURE_D2_CH_BAC
 10
1.10756
 20
0.497315
 30
0
  0
VERTEX
  8
72_ARTEK_AKFURNITURE_D2_CH_BAC
 10
1.13211
 20
0.497317
 30
0
  0
VERTEX
  8
72_ARTEK_AKFURNITURE_D2_CH_BAC
 10
1.14752
 20
0.497334
 30
0
  0
VERTEX
  8
72_ARTEK_AKFURNITURE_D2_CH_BAC
 10
1.16577
 20
0.497361
 30
0
  0
VERTEX
  8
72_ARTEK_AKFURNITURE_D2_CH_BAC
 10
1.20842
 20
0.497465
 30
0
  0
VERTEX
  8
72_ARTEK_AKFURNITURE_D2_CH_BAC
 10
1.25178
 20
0.497689
 30
0
  0
VERTEX
  8
72_ARTEK_AKFURNITURE_D2_CH_BAC
 10
1.27309
 20
0.497843
 30
0
  0
VERTEX
  8
72_ARTEK_AKFURNITURE_D2_CH_BAC
 10
1.2917
 20
0.497989
 30
0
  0
VERTEX
  8
72_ARTEK_AKFURNITURE_D2_CH_BAC
 10
1.30717
 20
0.49812
 30
0
  0
VERTEX
  8
72_ARTEK_AKFURNITURE_D2_CH_BAC
 10
1.31951
 20
0.498236
 30
0
  0
VERTEX
  8
72_ARTEK_AKFURNITURE_D2_CH_BAC
 10
1.3379
 20
0.498431
 30
0
  0
VERTEX
  8
72_ARTEK_AKFURNITURE_D2_CH_BAC
 10
1.35266
 20
0.498583
 30
0
  0
VERTEX
  8
72_ARTEK_AKFURNITURE_D2_CH_BAC
 10
1.36434
 20
0.498689
 30
0
  0
VERTEX
  8
72_ARTEK_AKFURNITURE_D2_CH_BAC
 10
1.3735
 20
0.498745
 30
0
  0
VERTEX
  8
72_ARTEK_AKFURNITURE_D2_CH_BAC
 10
1.37958
 20
0.4988
 30
0
  0
VERTEX
  8
72_ARTEK_AKFURNITURE_D2_CH_BAC
 10
1.3821
 20
0.498897
 30
0
  0
VERTEX
  8
72_ARTEK_AKFURNITURE_D2_CH_BAC
 10
1.38321
 20
0.49901
 30
0
  0
VERTEX
  8
72_ARTEK_AKFURNITURE_D2_CH_BAC
 10
1.3854
 20
0.499249
 30
0
  0
VERTEX
  8
72_ARTEK_AKFURNITURE_D2_CH_BAC
 10
1.38951
 20
0.499853
 30
0
  0
VERTEX
  8
72_ARTEK_AKFURNITURE_D2_CH_BAC
 10
1.39576
 20
0.501614
 30
0
  0
VERTEX
  8
72_ARTEK_AKFURNITURE_D2_CH_BAC
 10
1.39914
 20
0.503533
 30
0
  0
VERTEX
  8
72_ARTEK_AKFURNITURE_D2_CH_BAC
 10
1.40124
 20
0.505885
 30
0
  0
VERTEX
  8
72_ARTEK_AKFURNITURE_D2_CH_BAC
 10
1.40224
 20
0.50894
 30
0
  0
VERTEX
  8
72_ARTEK_AKFURNITURE_D2_CH_BAC
 10
1.40238
 20
0.516538
 30
0
  0
VERTEX
  8
72_ARTEK_AKFURNITURE_D2_CH_BAC
 10
1.40238
 20
0.578957
 30
0
  0
VERTEX
  8
72_ARTEK_AKFURNITURE_D2_CH_BAC
 10
1.40238
 20
0.594562
 30
0
  0
VERTEX
  8
72_ARTEK_AKFURNITURE_D2_CH_BAC
 10
1.4021
 20
0.596913
 30
0
  0
VERTEX
  8
72_ARTEK_AKFURNITURE_D2_CH_BAC
 10
1.40157
 20
0.598085
 30
0
  0
VERTEX
  8
72_ARTEK_AKFURNITURE_D2_CH_BAC
 10
1.4013
 20
0.599582
 30
0
  0
VERTEX
  8
72_ARTEK_AKFURNITURE_D2_CH_BAC
 10
1.40097
 20
0.601238
 30
0
  0
VERTEX
  8
72_ARTEK_AKFURNITURE_D2_CH_BAC
 10
1.39876
 20
0.603419
 30
0
  0
VERTEX
  8
72_ARTEK_AKFURNITURE_D2_CH_BAC
 10
1.39542
 20
0.605249
 30
0
  0
VERTEX
  8
72_ARTEK_AKFURNITURE_D2_CH_BAC
 10
1.39259
 20
0.606177
 30
0
  0
VERTEX
  8
72_ARTEK_AKFURNITURE_D2_CH_BAC
 10
1.3874
 20
0.607257
 30
0
  0
VERTEX
  8
72_ARTEK_AKFURNITURE_D2_CH_BAC
 10
1.38336
 20
0.607776
 30
0
  0
VERTEX
  8
72_ARTEK_AKFURNITURE_D2_CH_BAC
 10
1.37792
 20
0.608041
 30
0
  0
VERTEX
  8
72_ARTEK_AKFURNITURE_D2_CH_BAC
 10
1.37411
 20
0.608045
 30
0
  0
VERTEX
  8
72_ARTEK_AKFURNITURE_D2_CH_BAC
 10
1.3673
 20
0.608092
 30
0
  0
VERTEX
  8
72_ARTEK_AKFURNITURE_D2_CH_BAC
 10
1.35912
 20
0.608159
 30
0
  0
VERTEX
  8
72_ARTEK_AKFURNITURE_D2_CH_BAC
 10
1.35293
 20
0.608224
 30
0
  0
VERTEX
  8
72_ARTEK_AKFURNITURE_D2_CH_BAC
 10
1.34417
 20
0.608323
 30
0
  0
VERTEX
  8
72_ARTEK_AKFURNITURE_D2_CH_BAC
 10
1.33803
 20
0.608392
 30
0
  0
VERTEX
  8
72_ARTEK_AKFURNITURE_D2_CH_BAC
 10
1.33062
 20
0.608474
 30
0
  0
VERTEX
  8
72_ARTEK_AKFURNITURE_D2_CH_BAC
 10
1.31261
 20
0.608669
 30
0
  0
VERTEX
  8
72_ARTEK_AKFURNITURE_D2_CH_BAC
 10
1.27282
 20
0.609045
 30
0
  0
VERTEX
  8
72_ARTEK_AKFURNITURE_D2_CH_BAC
 10
1.19099
 20
0.609489
 30
0
  0
VERTEX
  8
72_ARTEK_AKFURNITURE_D2_CH_BAC
 10
1.02734
 20
0.609433
 30
0
  0
VERTEX
  8
72_ARTEK_AKFURNITURE_D2_CH_BAC
 10
0.945582
 20
0.608881
 30
0
  0
VERTEX
  8
72_ARTEK_AKFURNITURE_D2_CH_BAC
 10
0.926031
 20
0.608688
 30
0
  0
VERTEX
  8
72_ARTEK_AKFURNITURE_D2_CH_BAC
 10
0.907765
 20
0.608492
 30
0
  0
VERTEX
  8
72_ARTEK_AKFURNITURE_D2_CH_BAC
 10
0.900103
 20
0.608407
 30
0
  0
VERTEX
  8
72_ARTEK_AKFURNITURE_D2_CH_BAC
 10
0.893707
 20
0.608336
 30
0
  0
VERTEX
  8
72_ARTEK_AKFURNITURE_D2_CH_BAC
 10
0.884552
 20
0.608232
 30
0
  0
VERTEX
  8
72_ARTEK_AKFURNITURE_D2_CH_BAC
 10
0.878156
 20
0.608164
 30
0
  0
VERTEX
  8
72_ARTEK_AKFURNITURE_D2_CH_BAC
 10
0.873748
 20
0.608126
 30
0
  0
VERTEX
  8
72_ARTEK_AKFURNITURE_D2_CH_BAC
 10
0.865978
 20
0.608065
 30
0
  0
VERTEX
  8
72_ARTEK_AKFURNITURE_D2_CH_BAC
 10
0.860811
 20
0.608041
 30
0
  0
VERTEX
  8
72_ARTEK_AKFURNITURE_D2_CH_BAC
 10
0.857223
 20
0.60804
 30
0
  0
VERTEX
  8
72_ARTEK_AKFURNITURE_D2_CH_BAC
 10
0.848462
 20
0.607127
 30
0
  0
VERTEX
  8
72_ARTEK_AKFURNITURE_D2_CH_BAC
 10
0.843395
 20
0.605948
 30
0
  0
VERTEX
  8
72_ARTEK_AKFURNITURE_D2_CH_BAC
 10
0.840875
 20
0.605048
 30
0
  0
VERTEX
  8
72_ARTEK_AKFURNITURE_D2_CH_BAC
 10
0.837695
 20
0.603191
 30
0
  0
SEQEND
  0
POLYLINE
  8
72_ARTEK_AKFURNITURE_D2_CH_BAC
 66
     1
 70
     0
 10
0.0
 20
0.0
 30
0.0
  0
VERTEX
  8
72_ARTEK_AKFURNITURE_D2_CH_BAC
 10
0.837378
 20
0.503718
 30
0
  0
VERTEX
  8
72_ARTEK_AKFURNITURE_D2_CH_BAC
 10
0.837378
 20
0.570609
 30
0
  0
VERTEX
  8
72_ARTEK_AKFURNITURE_D2_CH_BAC
 10
0.837378
 20
0.587332
 30
0
  0
VERTEX
  8
72_ARTEK_AKFURNITURE_D2_CH_BAC
 10
0.837378
 20
0.595693
 30
0
  0
VERTEX
  8
72_ARTEK_AKFURNITURE_D2_CH_BAC
 10
0.837378
 20
0.599874
 30
0
  0
VERTEX
  8
72_ARTEK_AKFURNITURE_D2_CH_BAC
 10
0.837378
 20
0.601965
 30
0
  0
VERTEX
  8
72_ARTEK_AKFURNITURE_D2_CH_BAC
 10
0.836483
 20
0.60361
 30
0
  0
VERTEX
  8
72_ARTEK_AKFURNITURE_D2_CH_BAC
 10
0.83159
 20
0.605872
 30
0
  0
VERTEX
  8
72_ARTEK_AKFURNITURE_D2_CH_BAC
 10
0.825647
 20
0.607221
 30
0
  0
VERTEX
  8
72_ARTEK_AKFURNITURE_D2_CH_BAC
 10
0.82059
 20
0.60786
 30
0
  0
VERTEX
  8
72_ARTEK_AKFURNITURE_D2_CH_BAC
 10
0.817302
 20
0.608041
 30
0
  0
VERTEX
  8
72_ARTEK_AKFURNITURE_D2_CH_BAC
 10
0.81275
 20
0.608042
 30
0
  0
VERTEX
  8
72_ARTEK_AKFURNITURE_D2_CH_BAC
 10
0.809228
 20
0.608061
 30
0
  0
VERTEX
  8
72_ARTEK_AKFURNITURE_D2_CH_BAC
 10
0.804446
 20
0.608099
 30
0
  0
VERTEX
  8
72_ARTEK_AKFURNITURE_D2_CH_BAC
 10
0.799572
 20
0.608137
 30
0
  0
VERTEX
  8
72_ARTEK_AKFURNITURE_D2_CH_BAC
 10
0.792925
 20
0.608202
 30
0
  0
VERTEX
  8
72_ARTEK_AKFURNITURE_D2_CH_BAC
 10
0.788386
 20
0.608253
 30
0
  0
VERTEX
  8
72_ARTEK_AKFURNITURE_D2_CH_BAC
 10
0.782614
 20
0.608318
 30
0
  0
VERTEX
  8
72_ARTEK_AKFURNITURE_D2_CH_BAC
 10
0.774887
 20
0.608404
 30
0
  0
VERTEX
  8
72_ARTEK_AKFURNITURE_D2_CH_BAC
 10
0.765193
 20
0.608511
 30
0
  0
VERTEX
  8
72_ARTEK_AKFURNITURE_D2_CH_BAC
 10
0.741936
 20
0.608757
 30
0
  0
VERTEX
  8
72_ARTEK_AKFURNITURE_D2_CH_BAC
 10
0.716969
 20
0.608992
 30
0
  0
VERTEX
  8
72_ARTEK_AKFURNITURE_D2_CH_BAC
 10
0.614951
 20
0.609519
 30
0
  0
VERTEX
  8
72_ARTEK_AKFURNITURE_D2_CH_BAC
 10
0.410916
 20
0.609117
 30
0
  0
VERTEX
  8
72_ARTEK_AKFURNITURE_D2_CH_BAC
 10
0.385451
 20
0.608899
 30
0
  0
VERTEX
  8
72_ARTEK_AKFURNITURE_D2_CH_BAC
 10
0.361115
 20
0.608658
 30
0
  0
VERTEX
  8
72_ARTEK_AKFURNITURE_D2_CH_BAC
 10
0.349587
 20
0.608534
 30
0
  0
VERTEX
  8
72_ARTEK_AKFURNITURE_D2_CH_BAC
 10
0.339526
 20
0.608423
 30
0
  0
VERTEX
  8
72_ARTEK_AKFURNITURE_D2_CH_BAC
 10
0.331433
 20
0.608333
 30
0
  0
VERTEX
  8
72_ARTEK_AKFURNITURE_D2_CH_BAC
 10
0.325306
 20
0.608263
 30
0
  0
VERTEX
  8
72_ARTEK_AKFURNITURE_D2_CH_BAC
 10
0.316735
 20
0.60817
 30
0
  0
VERTEX
  8
72_ARTEK_AKFURNITURE_D2_CH_BAC
 10
0.311198
 20
0.608122
 30
0
  0
VERTEX
  8
72_ARTEK_AKFURNITURE_D2_CH_BAC
 10
0.301899
 20
0.608051
 30
0
  0
VERTEX
  8
72_ARTEK_AKFURNITURE_D2_CH_BAC
 10
0.296782
 20
0.608041
 30
0
  0
VERTEX
  8
72_ARTEK_AKFURNITURE_D2_CH_BAC
 10
0.292944
 20
0.607944
 30
0
  0
VERTEX
  8
72_ARTEK_AKFURNITURE_D2_CH_BAC
 10
0.287835
 20
0.607327
 30
0
  0
VERTEX
  8
72_ARTEK_AKFURNITURE_D2_CH_BAC
 10
0.281694
 20
0.606043
 30
0
  0
VERTEX
  8
72_ARTEK_AKFURNITURE_D2_CH_BAC
 10
0.278598
 20
0.604919
 30
0
  0
VERTEX
  8
72_ARTEK_AKFURNITURE_D2_CH_BAC
 10
0.275378
 20
0.602275
 30
0
  0
VERTEX
  8
72_ARTEK_AKFURNITURE_D2_CH_BAC
 10
0.275378
 20
0.598094
 30
0
  0
VERTEX
  8
72_ARTEK_AKFURNITURE_D2_CH_BAC
 10
0.275378
 20
0.589732
 30
0
  0
VERTEX
  8
72_ARTEK_AKFURNITURE_D2_CH_BAC
 10
0.275378
 20
0.57301
 30
0
  0
VERTEX
  8
72_ARTEK_AKFURNITURE_D2_CH_BAC
 10
0.275378
 20
0.539564
 30
0
  0
VERTEX
  8
72_ARTEK_AKFURNITURE_D2_CH_BAC
 10
0.275378
 20
0.506118
 30
0
  0
VERTEX
  8
72_ARTEK_AKFURNITURE_D2_CH_BAC
 10
0.275378
 20
0.504028
 30
0
  0
VERTEX
  8
72_ARTEK_AKFURNITURE_D2_CH_BAC
 10
0.276854
 20
0.502696
 30
0
  0
VERTEX
  8
72_ARTEK_AKFURNITURE_D2_CH_BAC
 10
0.279043
 20
0.501591
 30
0
  0
VERTEX
  8
72_ARTEK_AKFURNITURE_D2_CH_BAC
 10
0.282398
 20
0.500499
 30
0
  0
VERTEX
  8
72_ARTEK_AKFURNITURE_D2_CH_BAC
 10
0.291917
 20
0.498972
 30
0
  0
VERTEX
  8
72_ARTEK_AKFURNITURE_D2_CH_BAC
 10
0.293532
 20
0.498841
 30
0
  0
VERTEX
  8
72_ARTEK_AKFURNITURE_D2_CH_BAC
 10
0.295692
 20
0.498791
 30
0
  0
VERTEX
  8
72_ARTEK_AKFURNITURE_D2_CH_BAC
 10
0.299116
 20
0.498757
 30
0
  0
VERTEX
  8
72_ARTEK_AKFURNITURE_D2_CH_BAC
 10
0.309341
 20
0.498697
 30
0
  0
VERTEX
  8
72_ARTEK_AKFURNITURE_D2_CH_BAC
 10
0.32317
 20
0.498572
 30
0
  0
VERTEX
  8
72_ARTEK_AKFURNITURE_D2_CH_BAC
 10
0.331674
 20
0.498484
 30
0
  0
VERTEX
  8
72_ARTEK_AKFURNITURE_D2_CH_BAC
 10
0.341414
 20
0.498383
 30
0
  0
VERTEX
  8
72_ARTEK_AKFURNITURE_D2_CH_BAC
 10
0.352395
 20
0.498266
 30
0
  0
VERTEX
  8
72_ARTEK_AKFURNITURE_D2_CH_BAC
 10
0.36635
 20
0.498131
 30
0
  0
VERTEX
  8
72_ARTEK_AKFURNITURE_D2_CH_BAC
 10
0.384719
 20
0.497975
 30
0
  0
VERTEX
  8
72_ARTEK_AKFURNITURE_D2_CH_BAC
 10
0.407503
 20
0.497799
 30
0
  0
VERTEX
  8
72_ARTEK_AKFURNITURE_D2_CH_BAC
 10
0.45889
 20
0.497494
 30
0
  0
VERTEX
  8
72_ARTEK_AKFURNITURE_D2_CH_BAC
 10
0.509567
 20
0.49736
 30
0
  0
VERTEX
  8
72_ARTEK_AKFURNITURE_D2_CH_BAC
 10
0.530806
 20
0.497329
 30
0
  0
VERTEX
  8
72_ARTEK_AKFURNITURE_D2_CH_BAC
 10
0.548043
 20
0.497313
 30
0
  0
VERTEX
  8
72_ARTEK_AKFURNITURE_D2_CH_BAC
 10
0.56194
 20
0.497312
 30
0
  0
VERTEX
  8
72_ARTEK_AKFURNITURE_D2_CH_BAC
 10
0.578431
 20
0.497325
 30
0
  0
VERTEX
  8
72_ARTEK_AKFURNITURE_D2_CH_BAC
 10
0.598924
 20
0.497353
 30
0
  0
VERTEX
  8
72_ARTEK_AKFURNITURE_D2_CH_BAC
 10
0.623345
 20
0.497397
 30
0
  0
VERTEX
  8
72_ARTEK_AKFURNITURE_D2_CH_BAC
 10
0.674792
 20
0.497597
 30
0
  0
VERTEX
  8
72_ARTEK_AKFURNITURE_D2_CH_BAC
 10
0.700516
 20
0.497764
 30
0
  0
VERTEX
  8
72_ARTEK_AKFURNITURE_D2_CH_BAC
 10
0.724122
 20
0.497944
 30
0
  0
VERTEX
  8
72_ARTEK_AKFURNITURE_D2_CH_BAC
 10
0.743315
 20
0.498104
 30
0
  0
VERTEX
  8
72_ARTEK_AKFURNITURE_D2_CH_BAC
 10
0.758093
 20
0.498242
 30
0
  0
VERTEX
  8
72_ARTEK_AKFURNITURE_D2_CH_BAC
 10
0.769388
 20
0.498362
 30
0
  0
VERTEX
  8
72_ARTEK_AKFURNITURE_D2_CH_BAC
 10
0.779359
 20
0.498467
 30
0
  0
VERTEX
  8
72_ARTEK_AKFURNITURE_D2_CH_BAC
 10
0.788093
 20
0.498557
 30
0
  0
VERTEX
  8
72_ARTEK_AKFURNITURE_D2_CH_BAC
 10
0.795645
 20
0.498631
 30
0
  0
VERTEX
  8
72_ARTEK_AKFURNITURE_D2_CH_BAC
 10
0.808022
 20
0.498728
 30
0
  0
VERTEX
  8
72_ARTEK_AKFURNITURE_D2_CH_BAC
 10
0.812861
 20
0.498752
 30
0
  0
VERTEX
  8
72_ARTEK_AKFURNITURE_D2_CH_BAC
 10
0.81652
 20
0.498784
 30
0
  0
VERTEX
  8
72_ARTEK_AKFURNITURE_D2_CH_BAC
 10
0.818916
 20
0.49883
 30
0
  0
VERTEX
  8
72_ARTEK_AKFURNITURE_D2_CH_BAC
 10
0.820058
 20
0.498892
 30
0
  0
VERTEX
  8
72_ARTEK_AKFURNITURE_D2_CH_BAC
 10
0.82519
 20
0.499491
 30
0
  0
VERTEX
  8
72_ARTEK_AKFURNITURE_D2_CH_BAC
 10
0.833309
 20
0.501429
 30
0
  0
VERTEX
  8
72_ARTEK_AKFURNITURE_D2_CH_BAC
 10
0.837378
 20
0.503718
 30
0
  0
SEQEND
  0
POLYLINE
  8
72_ARTEK_AKFURNITURE_D2_CH_BAC
 66
     1
 70
     0
 10
0.0
 20
0.0
 30
0.0
  0
VERTEX
  8
72_ARTEK_AKFURNITURE_D2_CH_BAC
 10
0.837378
 20
0.39775
 30
0
  0
VERTEX
  8
72_ARTEK_AKFURNITURE_D2_CH_BAC
 10
0.837378
 20
0.488007
 30
0
  0
VERTEX
  8
72_ARTEK_AKFURNITURE_D2_CH_BAC
 10
0.837378
 20
0.49929
 30
0
  0
VERTEX
  8
72_ARTEK_AKFURNITURE_D2_CH_BAC
 10
0.837378
 20
0.50211
 30
0
  0
VERTEX
  8
72_ARTEK_AKFURNITURE_D2_CH_BAC
 10
0.837378
 20
0.50352
 30
0
  0
VERTEX
  8
72_ARTEK_AKFURNITURE_D2_CH_BAC
 10
0.836389
 20
0.503006
 30
0
  0
VERTEX
  8
72_ARTEK_AKFURNITURE_D2_CH_BAC
 10
0.833508
 20
0.501506
 30
0
  0
VERTEX
  8
72_ARTEK_AKFURNITURE_D2_CH_BAC
 10
0.828544
 20
0.50008
 30
0
  0
VERTEX
  8
72_ARTEK_AKFURNITURE_D2_CH_BAC
 10
0.822015
 20
0.499093
 30
0
  0
VERTEX
  8
72_ARTEK_AKFURNITURE_D2_CH_BAC
 10
0.820239
 20
0.498911
 30
0
  0
VERTEX
  8
72_ARTEK_AKFURNITURE_D2_CH_BAC
 10
0.818783
 20
0.498826
 30
0
  0
VERTEX
  8
72_ARTEK_AKFURNITURE_D2_CH_BAC
 10
0.815128
 20
0.498768
 30
0
  0
VERTEX
  8
72_ARTEK_AKFURNITURE_D2_CH_BAC
 10
0.809208
 20
0.498735
 30
0
  0
VERTEX
  8
72_ARTEK_AKFURNITURE_D2_CH_BAC
 10
0.801518
 20
0.498683
 30
0
  0
VERTEX
  8
72_ARTEK_AKFURNITURE_D2_CH_BAC
 10
0.792217
 20
0.498598
 30
0
  0
VERTEX
  8
72_ARTEK_AKFURNITURE_D2_CH_BAC
 10
0.781022
 20
0.498484
 30
0
  0
VERTEX
  8
72_ARTEK_AKFURNITURE_D2_CH_BAC
 10
0.767577
 20
0.498343
 30
0
  0
VERTEX
  8
72_ARTEK_AKFURNITURE_D2_CH_BAC
 10
0.76
 20
0.498262
 30
0
  0
VERTEX
  8
72_ARTEK_AKFURNITURE_D2_CH_BAC
 10
0.750979
 20
0.498173
 30
0
  0
VERTEX
  8
72_ARTEK_AKFURNITURE_D2_CH_BAC
 10
0.739949
 20
0.498074
 30
0
  0
VERTEX
  8
72_ARTEK_AKFURNITURE_D2_CH_BAC
 10
0.726909
 20
0.497966
 30
0
  0
VERTEX
  8
72_ARTEK_AKFURNITURE_D2_CH_BAC
 10
0.71186
 20
0.497849
 30
0
  0
VERTEX
  8
72_ARTEK_AKFURNITURE_D2_CH_BAC
 10
0.694927
 20
0.497724
 30
0
  0
VERTEX
  8
72_ARTEK_AKFURNITURE_D2_CH_BAC
 10
0.625508
 20
0.497402
 30
0
  0
VERTEX
  8
72_ARTEK_AKFURNITURE_D2_CH_BAC
 10
0.60847
 20
0.497369
 30
0
  0
VERTEX
  8
72_ARTEK_AKFURNITURE_D2_CH_BAC
 10
0.593099
 20
0.497344
 30
0
  0
VERTEX
  8
72_ARTEK_AKFURNITURE_D2_CH_BAC
 10
0.57955
 20
0.497326
 30
0
  0
VERTEX
  8
72_ARTEK_AKFURNITURE_D2_CH_BAC
 10
0.567823
 20
0.497315
 30
0
  0
VERTEX
  8
72_ARTEK_AKFURNITURE_D2_CH_BAC
 10
0.548591
 20
0.497313
 30
0
  0
VERTEX
  8
72_ARTEK_AKFURNITURE_D2_CH_BAC
 10
0.537499
 20
0.497322
 30
0
  0
VERTEX
  8
72_ARTEK_AKFURNITURE_D2_CH_BAC
 10
0.524585
 20
0.497337
 30
0
  0
VERTEX
  8
72_ARTEK_AKFURNITURE_D2_CH_BAC
 10
0.509849
 20
0.49736
 30
0
  0
VERTEX
  8
72_ARTEK_AKFURNITURE_D2_CH_BAC
 10
0.493295
 20
0.497389
 30
0
  0
VERTEX
  8
72_ARTEK_AKFURNITURE_D2_CH_BAC
 10
0.458586
 20
0.497496
 30
0
  0
VERTEX
  8
72_ARTEK_AKFURNITURE_D2_CH_BAC
 10
0.423877
 20
0.497683
 30
0
  0
VERTEX
  8
72_ARTEK_AKFURNITURE_D2_CH_BAC
 10
0.406612
 20
0.497806
 30
0
  0
VERTEX
  8
72_ARTEK_AKFURNITURE_D2_CH_BAC
 10
0.390863
 20
0.497927
 30
0
  0
VERTEX
  8
72_ARTEK_AKFURNITURE_D2_CH_BAC
 10
0.377123
 20
0.498038
 30
0
  0
VERTEX
  8
72_ARTEK_AKFURNITURE_D2_CH_BAC
 10
0.365392
 20
0.49814
 30
0
  0
VERTEX
  8
72_ARTEK_AKFURNITURE_D2_CH_BAC
 10
0.355671
 20
0.498232
 30
0
  0
VERTEX
  8
72_ARTEK_AKFURNITURE_D2_CH_BAC
 10
0.347752
 20
0.498315
 30
0
  0
VERTEX
  8
72_ARTEK_AKFURNITURE_D2_CH_BAC
 10
0.333914
 20
0.498461
 30
0
  0
VERTEX
  8
72_ARTEK_AKFURNITURE_D2_CH_BAC
 10
0.322328
 20
0.49858
 30
0
  0
VERTEX
  8
72_ARTEK_AKFURNITURE_D2_CH_BAC
 10
0.312742
 20
0.49867
 30
0
  0
VERTEX
  8
72_ARTEK_AKFURNITURE_D2_CH_BAC
 10
0.304771
 20
0.498728
 30
0
  0
VERTEX
  8
72_ARTEK_AKFURNITURE_D2_CH_BAC
 10
0.2985
 20
0.498761
 30
0
  0
VERTEX
  8
72_ARTEK_AKFURNITURE_D2_CH_BAC
 10
0.294444
 20
0.498814
 30
0
  0
VERTEX
  8
72_ARTEK_AKFURNITURE_D2_CH_BAC
 10
0.291783
 20
0.498986
 30
0
  0
VERTEX
  8
72_ARTEK_AKFURNITURE_D2_CH_BAC
 10
0.285067
 20
0.499889
 30
0
  0
VERTEX
  8
72_ARTEK_AKFURNITURE_D2_CH_BAC
 10
0.27984
 20
0.501289
 30
0
  0
VERTEX
  8
72_ARTEK_AKFURNITURE_D2_CH_BAC
 10
0.276722
 20
0.50278
 30
0
  0
VERTEX
  8
72_ARTEK_AKFURNITURE_D2_CH_BAC
 10
0.27555
 20
0.503586
 30
0
  0
VERTEX
  8
72_ARTEK_AKFURNITURE_D2_CH_BAC
 10
0.275378
 20
0.502524
 30
0
  0
VERTEX
  8
72_ARTEK_AKFURNITURE_D2_CH_BAC
 10
0.275378
 20
0.499704
 30
0
  0
VERTEX
  8
72_ARTEK_AKFURNITURE_D2_CH_BAC
 10
0.275378
 20
0.494063
 30
0
  0
VERTEX
  8
72_ARTEK_AKFURNITURE_D2_CH_BAC
 10
0.275378
 20
0.48278
 30
0
  0
VERTEX
  8
72_ARTEK_AKFURNITURE_D2_CH_BAC
 10
0.275378
 20
0.460216
 30
0
  0
VERTEX
  8
72_ARTEK_AKFURNITURE_D2_CH_BAC
 10
0.275378
 20
0.415087
 30
0
  0
VERTEX
  8
72_ARTEK_AKFURNITURE_D2_CH_BAC
 10
0.275378
 20
0.403805
 30
0
  0
VERTEX
  8
72_ARTEK_AKFURNITURE_D2_CH_BAC
 10
0.275378
 20
0.398164
 30
0
  0
VERTEX
  8
72_ARTEK_AKFURNITURE_D2_CH_BAC
 10
0.278692
 20
0.395927
 30
0
  0
VERTEX
  8
72_ARTEK_AKFURNITURE_D2_CH_BAC
 10
0.283434
 20
0.394609
 30
0
  0
VERTEX
  8
72_ARTEK_AKFURNITURE_D2_CH_BAC
 10
0.286551
 20
0.394109
 30
0
  0
VERTEX
  8
72_ARTEK_AKFURNITURE_D2_CH_BAC
 10
0.291085
 20
0.393719
 30
0
  0
VERTEX
  8
72_ARTEK_AKFURNITURE_D2_CH_BAC
 10
0.295342
 20
0.393539
 30
0
  0
VERTEX
  8
72_ARTEK_AKFURNITURE_D2_CH_BAC
 10
0.298473
 20
0.393537
 30
0
  0
VERTEX
  8
72_ARTEK_AKFURNITURE_D2_CH_BAC
 10
0.302449
 20
0.393525
 30
0
  0
VERTEX
  8
72_ARTEK_AKFURNITURE_D2_CH_BAC
 10
0.308941
 20
0.393474
 30
0
  0
VERTEX
  8
72_ARTEK_AKFURNITURE_D2_CH_BAC
 10
0.316243
 20
0.393412
 30
0
  0
VERTEX
  8
72_ARTEK_AKFURNITURE_D2_CH_BAC
 10
0.3217
 20
0.393354
 30
0
  0
VERTEX
  8
72_ARTEK_AKFURNITURE_D2_CH_BAC
 10
0.328539
 20
0.393276
 30
0
  0
VERTEX
  8
72_ARTEK_AKFURNITURE_D2_CH_BAC
 10
0.342637
 20
0.393113
 30
0
  0
VERTEX
  8
72_ARTEK_AKFURNITURE_D2_CH_BAC
 10
0.358545
 20
0.392936
 30
0
  0
VERTEX
  8
72_ARTEK_AKFURNITURE_D2_CH_BAC
 10
0.368716
 20
0.392831
 30
0
  0
VERTEX
  8
72_ARTEK_AKFURNITURE_D2_CH_BAC
 10
0.382653
 20
0.392698
 30
0
  0
VERTEX
  8
72_ARTEK_AKFURNITURE_D2_CH_BAC
 10
0.417665
 20
0.392401
 30
0
  0
VERTEX
  8
72_ARTEK_AKFURNITURE_D2_CH_BAC
 10
0.453153
 20
0.392192
 30
0
  0
VERTEX
  8
72_ARTEK_AKFURNITURE_D2_CH_BAC
 10
0.470897
 20
0.392122
 30
0
  0
VERTEX
  8
72_ARTEK_AKFURNITURE_D2_CH_BAC
 10
0.487102
 20
0.392074
 30
0
  0
VERTEX
  8
72_ARTEK_AKFURNITURE_D2_CH_BAC
 10
0.499012
 20
0.392044
 30
0
  0
VERTEX
  8
72_ARTEK_AKFURNITURE_D2_CH_BAC
 10
0.507285
 20
0.392031
 30
0
  0
VERTEX
  8
72_ARTEK_AKFURNITURE_D2_CH_BAC
 10
0.525816
 20
0.39202
 30
0
  0
VERTEX
  8
72_ARTEK_AKFURNITURE_D2_CH_BAC
 10
0.538178
 20
0.392019
 30
0
  0
VERTEX
  8
72_ARTEK_AKFURNITURE_D2_CH_BAC
 10
0.553808
 20
0.392019
 30
0
  0
VERTEX
  8
72_ARTEK_AKFURNITURE_D2_CH_BAC
 10
0.570327
 20
0.392019
 30
0
  0
VERTEX
  8
72_ARTEK_AKFURNITURE_D2_CH_BAC
 10
0.583649
 20
0.39202
 30
0
  0
VERTEX
  8
72_ARTEK_AKFURNITURE_D2_CH_BAC
 10
0.594002
 20
0.392022
 30
0
  0
VERTEX
  8
72_ARTEK_AKFURNITURE_D2_CH_BAC
 10
0.603026
 20
0.392029
 30
0
  0
VERTEX
  8
72_ARTEK_AKFURNITURE_D2_CH_BAC
 10
0.611072
 20
0.392039
 30
0
  0
VERTEX
  8
72_ARTEK_AKFURNITURE_D2_CH_BAC
 10
0.621706
 20
0.392064
 30
0
  0
VERTEX
  8
72_ARTEK_AKFURNITURE_D2_CH_BAC
 10
0.636688
 20
0.392106
 30
0
  0
VERTEX
  8
72_ARTEK_AKFURNITURE_D2_CH_BAC
 10
0.654392
 20
0.392169
 30
0
  0
VERTEX
  8
72_ARTEK_AKFURNITURE_D2_CH_BAC
 10
0.689881
 20
0.392365
 30
0
  0
VERTEX
  8
72_ARTEK_AKFURNITURE_D2_CH_BAC
 10
0.725288
 20
0.392653
 30
0
  0
VERTEX
  8
72_ARTEK_AKFURNITURE_D2_CH_BAC
 10
0.740343
 20
0.392795
 30
0
  0
VERTEX
  8
72_ARTEK_AKFURNITURE_D2_CH_BAC
 10
0.751588
 20
0.392908
 30
0
  0
VERTEX
  8
72_ARTEK_AKFURNITURE_D2_CH_BAC
 10
0.76798
 20
0.393088
 30
0
  0
VERTEX
  8
72_ARTEK_AKFURNITURE_D2_CH_BAC
 10
0.782148
 20
0.393252
 30
0
  0
VERTEX
  8
72_ARTEK_AKFURNITURE_D2_CH_BAC
 10
0.795073
 20
0.393398
 30
0
  0
VERTEX
  8
72_ARTEK_AKFURNITURE_D2_CH_BAC
 10
0.802819
 20
0.393466
 30
0
  0
VERTEX
  8
72_ARTEK_AKFURNITURE_D2_CH_BAC
 10
0.809474
 20
0.393519
 30
0
  0
VERTEX
  8
72_ARTEK_AKFURNITURE_D2_CH_BAC
 10
0.813824
 20
0.393537
 30
0
  0
VERTEX
  8
72_ARTEK_AKFURNITURE_D2_CH_BAC
 10
0.820926
 20
0.393674
 30
0
  0
VERTEX
  8
72_ARTEK_AKFURNITURE_D2_CH_BAC
 10
0.825653
 20
0.394046
 30
0
  0
VERTEX
  8
72_ARTEK_AKFURNITURE_D2_CH_BAC
 10
0.828897
 20
0.394525
 30
0
  0
VERTEX
  8
72_ARTEK_AKFURNITURE_D2_CH_BAC
 10
0.833786
 20
0.395826
 30
0
  0
VERTEX
  8
72_ARTEK_AKFURNITURE_D2_CH_BAC
 10
0.837378
 20
0.39775
 30
0
  0
SEQEND
  0
POLYLINE
  8
72_ARTEK_AKFURNITURE_D2SNAP
 66
     1
 70
     0
 10
0.0
 20
0.0
 30
0.0
  0
VERTEX
  8
72_ARTEK_AKFURNITURE_D2SNAP
 10
0.568878
 20
0.255152
 30
0
  0
VERTEX
  8
72_ARTEK_AKFURNITURE_D2SNAP
 10
0.568637
 20
0.257591
 30
0
  0
VERTEX
  8
72_ARTEK_AKFURNITURE_D2SNAP
 10
0.567926
 20
0.259936
 30
0
  0
VERTEX
  8
72_ARTEK_AKFURNITURE_D2SNAP
 10
0.566771
 20
0.262097
 30
0
  0
VERTEX
  8
72_ARTEK_AKFURNITURE_D2SNAP
 10
0.565216
 20
0.263991
 30
0
  0
VERTEX
  8
72_ARTEK_AKFURNITURE_D2SNAP
 10
0.563322
 20
0.265545
 30
0
  0
VERTEX
  8
72_ARTEK_AKFURNITURE_D2SNAP
 10
0.561161
 20
0.266701
 30
0
  0
VERTEX
  8
72_ARTEK_AKFURNITURE_D2SNAP
 10
0.558816
 20
0.267412
 30
0
  0
VERTEX
  8
72_ARTEK_AKFURNITURE_D2SNAP
 10
0.556378
 20
0.267652
 30
0
  0
VERTEX
  8
72_ARTEK_AKFURNITURE_D2SNAP
 10
0.553939
 20
0.267412
 30
0
  0
VERTEX
  8
72_ARTEK_AKFURNITURE_D2SNAP
 10
0.551594
 20
0.266701
 30
0
  0
VERTEX
  8
72_ARTEK_AKFURNITURE_D2SNAP
 10
0.549433
 20
0.265545
 30
0
  0
VERTEX
  8
72_ARTEK_AKFURNITURE_D2SNAP
 10
0.547539
 20
0.263991
 30
0
  0
VERTEX
  8
72_ARTEK_AKFURNITURE_D2SNAP
 10
0.545984
 20
0.262097
 30
0
  0
VERTEX
  8
72_ARTEK_AKFURNITURE_D2SNAP
 10
0.544829
 20
0.259936
 30
0
  0
VERTEX
  8
72_ARTEK_AKFURNITURE_D2SNAP
 10
0.544118
 20
0.257591
 30
0
  0
VERTEX
  8
72_ARTEK_AKFURNITURE_D2SNAP
 10
0.543878
 20
0.255152
 30
0
  0
VERTEX
  8
72_ARTEK_AKFURNITURE_D2SNAP
 10
0.544118
 20
0.252713
 30
0
  0
VERTEX
  8
72_ARTEK_AKFURNITURE_D2SNAP
 10
0.544829
 20
0.250369
 30
0
  0
VERTEX
  8
72_ARTEK_AKFURNITURE_D2SNAP
 10
0.545984
 20
0.248207
 30
0
  0
VERTEX
  8
72_ARTEK_AKFURNITURE_D2SNAP
 10
0.547539
 20
0.246313
 30
0
  0
VERTEX
  8
72_ARTEK_AKFURNITURE_D2SNAP
 10
0.549433
 20
0.244759
 30
0
  0
VERTEX
  8
72_ARTEK_AKFURNITURE_D2SNAP
 10
0.551594
 20
0.243604
 30
0
  0
VERTEX
  8
72_ARTEK_AKFURNITURE_D2SNAP
 10
0.553939
 20
0.242892
 30
0
  0
VERTEX
  8
72_ARTEK_AKFURNITURE_D2SNAP
 10
0.556378
 20
0.242652
 30
0
  0
VERTEX
  8
72_ARTEK_AKFURNITURE_D2SNAP
 10
0.558816
 20
0.242892
 30
0
  0
VERTEX
  8
72_ARTEK_AKFURNITURE_D2SNAP
 10
0.561161
 20
0.243604
 30
0
  0
VERTEX
  8
72_ARTEK_AKFURNITURE_D2SNAP
 10
0.563322
 20
0.244759
 30
0
  0
VERTEX
  8
72_ARTEK_AKFURNITURE_D2SNAP
 10
0.565216
 20
0.246313
 30
0
  0
VERTEX
  8
72_ARTEK_AKFURNITURE_D2SNAP
 10
0.566771
 20
0.248207
 30
0
  0
VERTEX
  8
72_ARTEK_AKFURNITURE_D2SNAP
 10
0.567926
 20
0.250369
 30
0
  0
VERTEX
  8
72_ARTEK_AKFURNITURE_D2SNAP
 10
0.568637
 20
0.252713
 30
0
  0
VERTEX
  8
72_ARTEK_AKFURNITURE_D2SNAP
 10
0.568878
 20
0.255152
 30
0
  0
SEQEND
  0
POLYLINE
  8
72_ARTEK_AKFURNITURE_D2SNAP
 66
     1
 70
     0
 10
0.0
 20
0.0
 30
0.0
  0
VERTEX
  8
72_ARTEK_AKFURNITURE_D2SNAP
 10
0.5387
 20
0.237474
 30
0
  0
VERTEX
  8
72_ARTEK_AKFURNITURE_D2SNAP
 10
0.574055
 20
0.27283
 30
0
  0
SEQEND
  0
POLYLINE
  8
72_ARTEK_AKFURNITURE_D2SNAP
 66
     1
 70
     0
 10
0.0
 20
0.0
 30
0.0
  0
VERTEX
  8
72_ARTEK_AKFURNITURE_D2SNAP
 10
0.5387
 20
0.27283
 30
0
  0
VERTEX
  8
72_ARTEK_AKFURNITURE_D2SNAP
 10
0.574055
 20
0.237474
 30
0
  0
SEQEND
  0
POLYLINE
  8
72_ARTEK_AKFURNITURE_D2_CH_FOO
 66
     1
 70
     0
 10
0.0
 20
0.0
 30
0.0
  0
VERTEX
  8
72_ARTEK_AKFURNITURE_D2_CH_FOO
 10
-0.293622
 20
0.144871
 30
0
  0
VERTEX
  8
72_ARTEK_AKFURNITURE_D2_CH_FOO
 10
-0.289622
 20
0.144871
 30
0
  0
VERTEX
  8
72_ARTEK_AKFURNITURE_D2_CH_FOO
 10
-0.289622
 20
0.162871
 30
0
  0
VERTEX
  8
72_ARTEK_AKFURNITURE_D2_CH_FOO
 10
-0.293622
 20
0.162871
 30
0
  0
VERTEX
  8
72_ARTEK_AKFURNITURE_D2_CH_FOO
 10
-0.293622
 20
0.364574
 30
0
  0
VERTEX
  8
72_ARTEK_AKFURNITURE_D2_CH_FOO
 10
-0.289622
 20
0.364574
 30
0
  0
VERTEX
  8
72_ARTEK_AKFURNITURE_D2_CH_FOO
 10
-0.289622
 20
0.382574
 30
0
  0
VERTEX
  8
72_ARTEK_AKFURNITURE_D2_CH_FOO
 10
-0.293622
 20
0.382574
 30
0
  0
VERTEX
  8
72_ARTEK_AKFURNITURE_D2_CH_FOO
 10
-0.293622
 20
0.555385
 30
0
  0
VERTEX
  8
72_ARTEK_AKFURNITURE_D2_CH_FOO
 10
-0.293622
 20
0.555385
 30
0
  0
VERTEX
  8
72_ARTEK_AKFURNITURE_D2_CH_FOO
 10
-0.293759
 20
0.553915
 30
0
  0
VERTEX
  8
72_ARTEK_AKFURNITURE_D2_CH_FOO
 10
-0.294163
 20
0.552496
 30
0
  0
VERTEX
  8
72_ARTEK_AKFURNITURE_D2_CH_FOO
 10
-0.294821
 20
0.551174
 30
0
  0
VERTEX
  8
72_ARTEK_AKFURNITURE_D2_CH_FOO
 10
-0.29571
 20
0.549996
 30
0
  0
VERTEX
  8
72_ARTEK_AKFURNITURE_D2_CH_FOO
 10
-0.296801
 20
0.549001
 30
0
  0
VERTEX
  8
72_ARTEK_AKFURNITURE_D2_CH_FOO
 10
-0.298057
 20
0.548224
 30
0
  0
VERTEX
  8
72_ARTEK_AKFURNITURE_D2_CH_FOO
 10
-0.299433
 20
0.547691
 30
0
  0
VERTEX
  8
72_ARTEK_AKFURNITURE_D2_CH_FOO
 10
-0.300884
 20
0.54742
 30
0
  0
VERTEX
  8
72_ARTEK_AKFURNITURE_D2_CH_FOO
 10
-0.302361
 20
0.54742
 30
0
  0
VERTEX
  8
72_ARTEK_AKFURNITURE_D2_CH_FOO
 10
-0.303812
 20
0.547691
 30
0
  0
VERTEX
  8
72_ARTEK_AKFURNITURE_D2_CH_FOO
 10
-0.305188
 20
0.548224
 30
0
  0
VERTEX
  8
72_ARTEK_AKFURNITURE_D2_CH_FOO
 10
-0.306443
 20
0.549001
 30
0
  0
VERTEX
  8
72_ARTEK_AKFURNITURE_D2_CH_FOO
 10
-0.307534
 20
0.549996
 30
0
  0
VERTEX
  8
72_ARTEK_AKFURNITURE_D2_CH_FOO
 10
-0.308424
 20
0.551174
 30
0
  0
VERTEX
  8
72_ARTEK_AKFURNITURE_D2_CH_FOO
 10
-0.309082
 20
0.552496
 30
0
  0
VERTEX
  8
72_ARTEK_AKFURNITURE_D2_CH_FOO
 10
-0.309486
 20
0.553916
 30
0
  0
VERTEX
  8
72_ARTEK_AKFURNITURE_D2_CH_FOO
 10
-0.309622
 20
0.555386
 30
0
  0
VERTEX
  8
72_ARTEK_AKFURNITURE_D2_CH_FOO
 10
-0.309622
 20
-0.0436145
 30
0
  0
VERTEX
  8
72_ARTEK_AKFURNITURE_D2_CH_FOO
 10
-0.309622
 20
-0.0436145
 30
0
  0
VERTEX
  8
72_ARTEK_AKFURNITURE_D2_CH_FOO
 10
-0.309486
 20
-0.0421445
 30
0
  0
VERTEX
  8
72_ARTEK_AKFURNITURE_D2_CH_FOO
 10
-0.309082
 20
-0.0407245
 30
0
  0
VERTEX
  8
72_ARTEK_AKFURNITURE_D2_CH_FOO
 10
-0.308424
 20
-0.039403
 30
0
  0
VERTEX
  8
72_ARTEK_AKFURNITURE_D2_CH_FOO
 10
-0.307534
 20
-0.0382249
 30
0
  0
VERTEX
  8
72_ARTEK_AKFURNITURE_D2_CH_FOO
 10
-0.306443
 20
-0.0372303
 30
0
  0
VERTEX
  8
72_ARTEK_AKFURNITURE_D2_CH_FOO
 10
-0.305188
 20
-0.0364531
 30
0
  0
VERTEX
  8
72_ARTEK_AKFURNITURE_D2_CH_FOO
 10
-0.303812
 20
-0.0359198
 30
0
  0
VERTEX
  8
72_ARTEK_AKFURNITURE_D2_CH_FOO
 10
-0.302361
 20
-0.0356486
 30
0
  0
VERTEX
  8
72_ARTEK_AKFURNITURE_D2_CH_FOO
 10
-0.300884
 20
-0.0356486
 30
0
  0
VERTEX
  8
72_ARTEK_AKFURNITURE_D2_CH_FOO
 10
-0.299433
 20
-0.0359198
 30
0
  0
VERTEX
  8
72_ARTEK_AKFURNITURE_D2_CH_FOO
 10
-0.298056
 20
-0.0364531
 30
0
  0
VERTEX
  8
72_ARTEK_AKFURNITURE_D2_CH_FOO
 10
-0.296801
 20
-0.0372303
 30
0
  0
VERTEX
  8
72_ARTEK_AKFURNITURE_D2_CH_FOO
 10
-0.29571
 20
-0.0382249
 30
0
  0
VERTEX
  8
72_ARTEK_AKFURNITURE_D2_CH_FOO
 10
-0.294821
 20
-0.039403
 30
0
  0
VERTEX
  8
72_ARTEK_AKFURNITURE_D2_CH_FOO
 10
-0.294163
 20
-0.0407245
 30
0
  0
VERTEX
  8
72_ARTEK_AKFURNITURE_D2_CH_FOO
 10
-0.293759
 20
-0.0421445
 30
0
  0
VERTEX
  8
72_ARTEK_AKFURNITURE_D2_CH_FOO
 10
-0.293622
 20
-0.0436145
 30
0
  0
VERTEX
  8
72_ARTEK_AKFURNITURE_D2_CH_FOO
 10
-0.293622
 20
0.144871
 30
0
  0
SEQEND
  0
POLYLINE
  8
72_ARTEK_AKFURNITURE_D2_CH_FOO
 66
     1
 70
     0
 10
0.0
 20
0.0
 30
0.0
  0
VERTEX
  8
72_ARTEK_AKFURNITURE_D2_CH_FOO
 10
-0.309622
 20
0.570386
 30
0
  0
VERTEX
  8
72_ARTEK_AKFURNITURE_D2_CH_FOO
 10
-0.309622
 20
0.555386
 30
0
  0
VERTEX
  8
72_ARTEK_AKFURNITURE_D2_CH_FOO
 10
-0.309622
 20
0.555386
 30
0
  0
VERTEX
  8
72_ARTEK_AKFURNITURE_D2_CH_FOO
 10
-0.309486
 20
0.553916
 30
0
  0
VERTEX
  8
72_ARTEK_AKFURNITURE_D2_CH_FOO
 10
-0.309082
 20
0.552496
 30
0
  0
VERTEX
  8
72_ARTEK_AKFURNITURE_D2_CH_FOO
 10
-0.308424
 20
0.551174
 30
0
  0
VERTEX
  8
72_ARTEK_AKFURNITURE_D2_CH_FOO
 10
-0.307534
 20
0.549996
 30
0
  0
VERTEX
  8
72_ARTEK_AKFURNITURE_D2_CH_FOO
 10
-0.306443
 20
0.549001
 30
0
  0
VERTEX
  8
72_ARTEK_AKFURNITURE_D2_CH_FOO
 10
-0.305188
 20
0.548224
 30
0
  0
VERTEX
  8
72_ARTEK_AKFURNITURE_D2_CH_FOO
 10
-0.303812
 20
0.547691
 30
0
  0
VERTEX
  8
72_ARTEK_AKFURNITURE_D2_CH_FOO
 10
-0.302361
 20
0.54742
 30
0
  0
VERTEX
  8
72_ARTEK_AKFURNITURE_D2_CH_FOO
 10
-0.300884
 20
0.54742
 30
0
  0
VERTEX
  8
72_ARTEK_AKFURNITURE_D2_CH_FOO
 10
-0.299433
 20
0.547691
 30
0
  0
VERTEX
  8
72_ARTEK_AKFURNITURE_D2_CH_FOO
 10
-0.298057
 20
0.548224
 30
0
  0
VERTEX
  8
72_ARTEK_AKFURNITURE_D2_CH_FOO
 10
-0.296801
 20
0.549001
 30
0
  0
VERTEX
  8
72_ARTEK_AKFURNITURE_D2_CH_FOO
 10
-0.29571
 20
0.549996
 30
0
  0
VERTEX
  8
72_ARTEK_AKFURNITURE_D2_CH_FOO
 10
-0.294821
 20
0.551174
 30
0
  0
VERTEX
  8
72_ARTEK_AKFURNITURE_D2_CH_FOO
 10
-0.294163
 20
0.552496
 30
0
  0
VERTEX
  8
72_ARTEK_AKFURNITURE_D2_CH_FOO
 10
-0.293759
 20
0.553915
 30
0
  0
VERTEX
  8
72_ARTEK_AKFURNITURE_D2_CH_FOO
 10
-0.293622
 20
0.555385
 30
0
  0
VERTEX
  8
72_ARTEK_AKFURNITURE_D2_CH_FOO
 10
-0.293622
 20
0.570386
 30
0
  0
VERTEX
  8
72_ARTEK_AKFURNITURE_D2_CH_FOO
 10
-0.293622
 20
0.570386
 30
0
  0
VERTEX
  8
72_ARTEK_AKFURNITURE_D2_CH_FOO
 10
-0.293759
 20
0.571856
 30
0
  0
VERTEX
  8
72_ARTEK_AKFURNITURE_D2_CH_FOO
 10
-0.294163
 20
0.573275
 30
0
  0
VERTEX
  8
72_ARTEK_AKFURNITURE_D2_CH_FOO
 10
-0.294821
 20
0.574597
 30
0
  0
VERTEX
  8
72_ARTEK_AKFURNITURE_D2_CH_FOO
 10
-0.29571
 20
0.575775
 30
0
  0
VERTEX
  8
72_ARTEK_AKFURNITURE_D2_CH_FOO
 10
-0.296801
 20
0.57677
 30
0
  0
VERTEX
  8
72_ARTEK_AKFURNITURE_D2_CH_FOO
 10
-0.298056
 20
0.577547
 30
0
  0
VERTEX
  8
72_ARTEK_AKFURNITURE_D2_CH_FOO
 10
-0.299433
 20
0.57808
 30
0
  0
VERTEX
  8
72_ARTEK_AKFURNITURE_D2_CH_FOO
 10
-0.300884
 20
0.578351
 30
0
  0
VERTEX
  8
72_ARTEK_AKFURNITURE_D2_CH_FOO
 10
-0.302361
 20
0.578351
 30
0
  0
VERTEX
  8
72_ARTEK_AKFURNITURE_D2_CH_FOO
 10
-0.303812
 20
0.57808
 30
0
  0
VERTEX
  8
72_ARTEK_AKFURNITURE_D2_CH_FOO
 10
-0.305188
 20
0.577547
 30
0
  0
VERTEX
  8
72_ARTEK_AKFURNITURE_D2_CH_FOO
 10
-0.306443
 20
0.57677
 30
0
  0
VERTEX
  8
72_ARTEK_AKFURNITURE_D2_CH_FOO
 10
-0.307534
 20
0.575775
 30
0
  0
VERTEX
  8
72_ARTEK_AKFURNITURE_D2_CH_FOO
 10
-0.308424
 20
0.574597
 30
0
  0
VERTEX
  8
72_ARTEK_AKFURNITURE_D2_CH_FOO
 10
-0.309082
 20
0.573275
 30
0
  0
VERTEX
  8
72_ARTEK_AKFURNITURE_D2_CH_FOO
 10
-0.309486
 20
0.571856
 30
0
  0
VERTEX
  8
72_ARTEK_AKFURNITURE_D2_CH_FOO
 10
-0.309622
 20
0.570386
 30
0
  0
SEQEND
  0
POLYLINE
  8
72_ARTEK_AKFURNITURE_D2_CH_FOO
 66
     1
 70
     0
 10
0.0
 20
0.0
 30
0.0
  0
VERTEX
  8
72_ARTEK_AKFURNITURE_D2_CH_FOO
 10
-0.289622
 20
0.553886
 30
0
  0
VERTEX
  8
72_ARTEK_AKFURNITURE_D2_CH_FOO
 10
-0.289622
 20
0.571886
 30
0
  0
VERTEX
  8
72_ARTEK_AKFURNITURE_D2_CH_FOO
 10
-0.293622
 20
0.571886
 30
0
  0
VERTEX
  8
72_ARTEK_AKFURNITURE_D2_CH_FOO
 10
-0.293622
 20
0.553886
 30
0
  0
VERTEX
  8
72_ARTEK_AKFURNITURE_D2_CH_FOO
 10
-0.289622
 20
0.553886
 30
0
  0
SEQEND
  0
POLYLINE
  8
72_ARTEK_AKFURNITURE_D2_CH_FOO
 66
     1
 70
     0
 10
0.0
 20
0.0
 30
0.0
  0
VERTEX
  8
72_ARTEK_AKFURNITURE_D2_CH_FOO
 10
-0.309622
 20
-0.0436145
 30
0
  0
VERTEX
  8
72_ARTEK_AKFURNITURE_D2_CH_FOO
 10
-0.309622
 20
-0.0586145
 30
0
  0
VERTEX
  8
72_ARTEK_AKFURNITURE_D2_CH_FOO
 10
-0.309622
 20
-0.0586145
 30
0
  0
VERTEX
  8
72_ARTEK_AKFURNITURE_D2_CH_FOO
 10
-0.309486
 20
-0.0600845
 30
0
  0
VERTEX
  8
72_ARTEK_AKFURNITURE_D2_CH_FOO
 10
-0.309082
 20
-0.0615044
 30
0
  0
VERTEX
  8
72_ARTEK_AKFURNITURE_D2_CH_FOO
 10
-0.308424
 20
-0.0628259
 30
0
  0
VERTEX
  8
72_ARTEK_AKFURNITURE_D2_CH_FOO
 10
-0.307534
 20
-0.064004
 30
0
  0
VERTEX
  8
72_ARTEK_AKFURNITURE_D2_CH_FOO
 10
-0.306443
 20
-0.0649986
 30
0
  0
VERTEX
  8
72_ARTEK_AKFURNITURE_D2_CH_FOO
 10
-0.305188
 20
-0.0657758
 30
0
  0
VERTEX
  8
72_ARTEK_AKFURNITURE_D2_CH_FOO
 10
-0.303812
 20
-0.0663091
 30
0
  0
VERTEX
  8
72_ARTEK_AKFURNITURE_D2_CH_FOO
 10
-0.302361
 20
-0.0665804
 30
0
  0
VERTEX
  8
72_ARTEK_AKFURNITURE_D2_CH_FOO
 10
-0.300884
 20
-0.0665804
 30
0
  0
VERTEX
  8
72_ARTEK_AKFURNITURE_D2_CH_FOO
 10
-0.299433
 20
-0.0663091
 30
0
  0
VERTEX
  8
72_ARTEK_AKFURNITURE_D2_CH_FOO
 10
-0.298057
 20
-0.0657758
 30
0
  0
VERTEX
  8
72_ARTEK_AKFURNITURE_D2_CH_FOO
 10
-0.296801
 20
-0.0649987
 30
0
  0
VERTEX
  8
72_ARTEK_AKFURNITURE_D2_CH_FOO
 10
-0.29571
 20
-0.0640041
 30
0
  0
VERTEX
  8
72_ARTEK_AKFURNITURE_D2_CH_FOO
 10
-0.294821
 20
-0.062826
 30
0
  0
VERTEX
  8
72_ARTEK_AKFURNITURE_D2_CH_FOO
 10
-0.294163
 20
-0.0615045
 30
0
  0
VERTEX
  8
72_ARTEK_AKFURNITURE_D2_CH_FOO
 10
-0.293759
 20
-0.0600845
 30
0
  0
VERTEX
  8
72_ARTEK_AKFURNITURE_D2_CH_FOO
 10
-0.293622
 20
-0.0586145
 30
0
  0
VERTEX
  8
72_ARTEK_AKFURNITURE_D2_CH_FOO
 10
-0.293622
 20
-0.0436145
 30
0
  0
VERTEX
  8
72_ARTEK_AKFURNITURE_D2_CH_FOO
 10
-0.293622
 20
-0.0436145
 30
0
  0
VERTEX
  8
72_ARTEK_AKFURNITURE_D2_CH_FOO
 10
-0.293759
 20
-0.0421445
 30
0
  0
VERTEX
  8
72_ARTEK_AKFURNITURE_D2_CH_FOO
 10
-0.294163
 20
-0.0407245
 30
0
  0
VERTEX
  8
72_ARTEK_AKFURNITURE_D2_CH_FOO
 10
-0.294821
 20
-0.039403
 30
0
  0
VERTEX
  8
72_ARTEK_AKFURNITURE_D2_CH_FOO
 10
-0.29571
 20
-0.0382249
 30
0
  0
VERTEX
  8
72_ARTEK_AKFURNITURE_D2_CH_FOO
 10
-0.296801
 20
-0.0372303
 30
0
  0
VERTEX
  8
72_ARTEK_AKFURNITURE_D2_CH_FOO
 10
-0.298056
 20
-0.0364531
 30
0
  0
VERTEX
  8
72_ARTEK_AKFURNITURE_D2_CH_FOO
 10
-0.299433
 20
-0.0359198
 30
0
  0
VERTEX
  8
72_ARTEK_AKFURNITURE_D2_CH_FOO
 10
-0.300884
 20
-0.0356486
 30
0
  0
VERTEX
  8
72_ARTEK_AKFURNITURE_D2_CH_FOO
 10
-0.302361
 20
-0.0356486
 30
0
  0
VERTEX
  8
72_ARTEK_AKFURNITURE_D2_CH_FOO
 10
-0.303812
 20
-0.0359198
 30
0
  0
VERTEX
  8
72_ARTEK_AKFURNITURE_D2_CH_FOO
 10
-0.305188
 20
-0.0364531
 30
0
  0
VERTEX
  8
72_ARTEK_AKFURNITURE_D2_CH_FOO
 10
-0.306443
 20
-0.0372303
 30
0
  0
VERTEX
  8
72_ARTEK_AKFURNITURE_D2_CH_FOO
 10
-0.307534
 20
-0.0382249
 30
0
  0
VERTEX
  8
72_ARTEK_AKFURNITURE_D2_CH_FOO
 10
-0.308424
 20
-0.039403
 30
0
  0
VERTEX
  8
72_ARTEK_AKFURNITURE_D2_CH_FOO
 10
-0.309082
 20
-0.0407245
 30
0
  0
VERTEX
  8
72_ARTEK_AKFURNITURE_D2_CH_FOO
 10
-0.309486
 20
-0.0421445
 30
0
  0
VERTEX
  8
72_ARTEK_AKFURNITURE_D2_CH_FOO
 10
-0.309622
 20
-0.0436145
 30
0
  0
SEQEND
  0
POLYLINE
  8
72_ARTEK_AKFURNITURE_D2_CH_FOO
 66
     1
 70
     0
 10
0.0
 20
0.0
 30
0.0
  0
VERTEX
  8
72_ARTEK_AKFURNITURE_D2_CH_FOO
 10
-0.289622
 20
-0.0601145
 30
0
  0
VERTEX
  8
72_ARTEK_AKFURNITURE_D2_CH_FOO
 10
-0.289622
 20
-0.0421145
 30
0
  0
VERTEX
  8
72_ARTEK_AKFURNITURE_D2_CH_FOO
 10
-0.293622
 20
-0.0421145
 30
0
  0
VERTEX
  8
72_ARTEK_AKFURNITURE_D2_CH_FOO
 10
-0.293622
 20
-0.0601145
 30
0
  0
VERTEX
  8
72_ARTEK_AKFURNITURE_D2_CH_FOO
 10
-0.289622
 20
-0.0601145
 30
0
  0
SEQEND
  0
POLYLINE
  8
72_ARTEK_AKFURNITURE_D2_CH_FOO
 66
     1
 70
     0
 10
0.0
 20
0.0
 30
0.0
  0
VERTEX
  8
72_ARTEK_AKFURNITURE_D2_CH_FOO
 10
1.40638
 20
0.144871
 30
0
  0
VERTEX
  8
72_ARTEK_AKFURNITURE_D2_CH_FOO
 10
1.40238
 20
0.144871
 30
0
  0
VERTEX
  8
72_ARTEK_AKFURNITURE_D2_CH_FOO
 10
1.40238
 20
0.162871
 30
0
  0
VERTEX
  8
72_ARTEK_AKFURNITURE_D2_CH_FOO
 10
1.40638
 20
0.162871
 30
0
  0
VERTEX
  8
72_ARTEK_AKFURNITURE_D2_CH_FOO
 10
1.40638
 20
0.364574
 30
0
  0
VERTEX
  8
72_ARTEK_AKFURNITURE_D2_CH_FOO
 10
1.40238
 20
0.364574
 30
0
  0
VERTEX
  8
72_ARTEK_AKFURNITURE_D2_CH_FOO
 10
1.40238
 20
0.382574
 30
0
  0
VERTEX
  8
72_ARTEK_AKFURNITURE_D2_CH_FOO
 10
1.40638
 20
0.382574
 30
0
  0
VERTEX
  8
72_ARTEK_AKFURNITURE_D2_CH_FOO
 10
1.40638
 20
0.555385
 30
0
  0
VERTEX
  8
72_ARTEK_AKFURNITURE_D2_CH_FOO
 10
1.40638
 20
0.555385
 30
0
  0
VERTEX
  8
72_ARTEK_AKFURNITURE_D2_CH_FOO
 10
1.40651
 20
0.553915
 30
0
  0
VERTEX
  8
72_ARTEK_AKFURNITURE_D2_CH_FOO
 10
1.40692
 20
0.552496
 30
0
  0
VERTEX
  8
72_ARTEK_AKFURNITURE_D2_CH_FOO
 10
1.40758
 20
0.551174
 30
0
  0
VERTEX
  8
72_ARTEK_AKFURNITURE_D2_CH_FOO
 10
1.40847
 20
0.549996
 30
0
  0
VERTEX
  8
72_ARTEK_AKFURNITURE_D2_CH_FOO
 10
1.40956
 20
0.549001
 30
0
  0
VERTEX
  8
72_ARTEK_AKFURNITURE_D2_CH_FOO
 10
1.41081
 20
0.548224
 30
0
  0
VERTEX
  8
72_ARTEK_AKFURNITURE_D2_CH_FOO
 10
1.41219
 20
0.547691
 30
0
  0
VERTEX
  8
72_ARTEK_AKFURNITURE_D2_CH_FOO
 10
1.41364
 20
0.54742
 30
0
  0
VERTEX
  8
72_ARTEK_AKFURNITURE_D2_CH_FOO
 10
1.41512
 20
0.54742
 30
0
  0
VERTEX
  8
72_ARTEK_AKFURNITURE_D2_CH_FOO
 10
1.41657
 20
0.547691
 30
0
  0
VERTEX
  8
72_ARTEK_AKFURNITURE_D2_CH_FOO
 10
1.41794
 20
0.548224
 30
0
  0
VERTEX
  8
72_ARTEK_AKFURNITURE_D2_CH_FOO
 10
1.4192
 20
0.549001
 30
0
  0
VERTEX
  8
72_ARTEK_AKFURNITURE_D2_CH_FOO
 10
1.42029
 20
0.549996
 30
0
  0
VERTEX
  8
72_ARTEK_AKFURNITURE_D2_CH_FOO
 10
1.42118
 20
0.551174
 30
0
  0
VERTEX
  8
72_ARTEK_AKFURNITURE_D2_CH_FOO
 10
1.42184
 20
0.552496
 30
0
  0
VERTEX
  8
72_ARTEK_AKFURNITURE_D2_CH_FOO
 10
1.42224
 20
0.553916
 30
0
  0
VERTEX
  8
72_ARTEK_AKFURNITURE_D2_CH_FOO
 10
1.42238
 20
0.555386
 30
0
  0
VERTEX
  8
72_ARTEK_AKFURNITURE_D2_CH_FOO
 10
1.42238
 20
-0.0436145
 30
0
  0
VERTEX
  8
72_ARTEK_AKFURNITURE_D2_CH_FOO
 10
1.42238
 20
-0.0436145
 30
0
  0
VERTEX
  8
72_ARTEK_AKFURNITURE_D2_CH_FOO
 10
1.42224
 20
-0.0421445
 30
0
  0
VERTEX
  8
72_ARTEK_AKFURNITURE_D2_CH_FOO
 10
1.42184
 20
-0.0407245
 30
0
  0
VERTEX
  8
72_ARTEK_AKFURNITURE_D2_CH_FOO
 10
1.42118
 20
-0.039403
 30
0
  0
VERTEX
  8
72_ARTEK_AKFURNITURE_D2_CH_FOO
 10
1.42029
 20
-0.0382249
 30
0
  0
VERTEX
  8
72_ARTEK_AKFURNITURE_D2_CH_FOO
 10
1.4192
 20
-0.0372303
 30
0
  0
VERTEX
  8
72_ARTEK_AKFURNITURE_D2_CH_FOO
 10
1.41794
 20
-0.0364531
 30
0
  0
VERTEX
  8
72_ARTEK_AKFURNITURE_D2_CH_FOO
 10
1.41657
 20
-0.0359198
 30
0
  0
VERTEX
  8
72_ARTEK_AKFURNITURE_D2_CH_FOO
 10
1.41512
 20
-0.0356486
 30
0
  0
VERTEX
  8
72_ARTEK_AKFURNITURE_D2_CH_FOO
 10
1.41364
 20
-0.0356486
 30
0
  0
VERTEX
  8
72_ARTEK_AKFURNITURE_D2_CH_FOO
 10
1.41219
 20
-0.0359198
 30
0
  0
VERTEX
  8
72_ARTEK_AKFURNITURE_D2_CH_FOO
 10
1.41081
 20
-0.0364531
 30
0
  0
VERTEX
  8
72_ARTEK_AKFURNITURE_D2_CH_FOO
 10
1.40956
 20
-0.0372303
 30
0
  0
VERTEX
  8
72_ARTEK_AKFURNITURE_D2_CH_FOO
 10
1.40847
 20
-0.0382249
 30
0
  0
VERTEX
  8
72_ARTEK_AKFURNITURE_D2_CH_FOO
 10
1.40758
 20
-0.039403
 30
0
  0
VERTEX
  8
72_ARTEK_AKFURNITURE_D2_CH_FOO
 10
1.40692
 20
-0.0407245
 30
0
  0
VERTEX
  8
72_ARTEK_AKFURNITURE_D2_CH_FOO
 10
1.40651
 20
-0.0421445
 30
0
  0
VERTEX
  8
72_ARTEK_AKFURNITURE_D2_CH_FOO
 10
1.40638
 20
-0.0436145
 30
0
  0
VERTEX
  8
72_ARTEK_AKFURNITURE_D2_CH_FOO
 10
1.40638
 20
0.144871
 30
0
  0
SEQEND
  0
POLYLINE
  8
72_ARTEK_AKFURNITURE_D2_CH_FOO
 66
     1
 70
     0
 10
0.0
 20
0.0
 30
0.0
  0
VERTEX
  8
72_ARTEK_AKFURNITURE_D2_CH_FOO
 10
1.42238
 20
0.570386
 30
0
  0
VERTEX
  8
72_ARTEK_AKFURNITURE_D2_CH_FOO
 10
1.42238
 20
0.555386
 30
0
  0
VERTEX
  8
72_ARTEK_AKFURNITURE_D2_CH_FOO
 10
1.42238
 20
0.555386
 30
0
  0
VERTEX
  8
72_ARTEK_AKFURNITURE_D2_CH_FOO
 10
1.42224
 20
0.553916
 30
0
  0
VERTEX
  8
72_ARTEK_AKFURNITURE_D2_CH_FOO
 10
1.42184
 20
0.552496
 30
0
  0
VERTEX
  8
72_ARTEK_AKFURNITURE_D2_CH_FOO
 10
1.42118
 20
0.551174
 30
0
  0
VERTEX
  8
72_ARTEK_AKFURNITURE_D2_CH_FOO
 10
1.42029
 20
0.549996
 30
0
  0
VERTEX
  8
72_ARTEK_AKFURNITURE_D2_CH_FOO
 10
1.4192
 20
0.549001
 30
0
  0
VERTEX
  8
72_ARTEK_AKFURNITURE_D2_CH_FOO
 10
1.41794
 20
0.548224
 30
0
  0
VERTEX
  8
72_ARTEK_AKFURNITURE_D2_CH_FOO
 10
1.41657
 20
0.547691
 30
0
  0
VERTEX
  8
72_ARTEK_AKFURNITURE_D2_CH_FOO
 10
1.41512
 20
0.54742
 30
0
  0
VERTEX
  8
72_ARTEK_AKFURNITURE_D2_CH_FOO
 10
1.41364
 20
0.54742
 30
0
  0
VERTEX
  8
72_ARTEK_AKFURNITURE_D2_CH_FOO
 10
1.41219
 20
0.547691
 30
0
  0
VERTEX
  8
72_ARTEK_AKFURNITURE_D2_CH_FOO
 10
1.41081
 20
0.548224
 30
0
  0
VERTEX
  8
72_ARTEK_AKFURNITURE_D2_CH_FOO
 10
1.40956
 20
0.549001
 30
0
  0
VERTEX
  8
72_ARTEK_AKFURNITURE_D2_CH_FOO
 10
1.40847
 20
0.549996
 30
0
  0
VERTEX
  8
72_ARTEK_AKFURNITURE_D2_CH_FOO
 10
1.40758
 20
0.551174
 30
0
  0
VERTEX
  8
72_ARTEK_AKFURNITURE_D2_CH_FOO
 10
1.40692
 20
0.552496
 30
0
  0
VERTEX
  8
72_ARTEK_AKFURNITURE_D2_CH_FOO
 10
1.40651
 20
0.553915
 30
0
  0
VERTEX
  8
72_ARTEK_AKFURNITURE_D2_CH_FOO
 10
1.40638
 20
0.555385
 30
0
  0
VERTEX
  8
72_ARTEK_AKFURNITURE_D2_CH_FOO
 10
1.40638
 20
0.570386
 30
0
  0
VERTEX
  8
72_ARTEK_AKFURNITURE_D2_CH_FOO
 10
1.40638
 20
0.570386
 30
0
  0
VERTEX
  8
72_ARTEK_AKFURNITURE_D2_CH_FOO
 10
1.40651
 20
0.571856
 30
0
  0
VERTEX
  8
72_ARTEK_AKFURNITURE_D2_CH_FOO
 10
1.40692
 20
0.573275
 30
0
  0
VERTEX
  8
72_ARTEK_AKFURNITURE_D2_CH_FOO
 10
1.40758
 20
0.574597
 30
0
  0
VERTEX
  8
72_ARTEK_AKFURNITURE_D2_CH_FOO
 10
1.40847
 20
0.575775
 30
0
  0
VERTEX
  8
72_ARTEK_AKFURNITURE_D2_CH_FOO
 10
1.40956
 20
0.57677
 30
0
  0
VERTEX
  8
72_ARTEK_AKFURNITURE_D2_CH_FOO
 10
1.41081
 20
0.577547
 30
0
  0
VERTEX
  8
72_ARTEK_AKFURNITURE_D2_CH_FOO
 10
1.41219
 20
0.57808
 30
0
  0
VERTEX
  8
72_ARTEK_AKFURNITURE_D2_CH_FOO
 10
1.41364
 20
0.578351
 30
0
  0
VERTEX
  8
72_ARTEK_AKFURNITURE_D2_CH_FOO
 10
1.41512
 20
0.578351
 30
0
  0
VERTEX
  8
72_ARTEK_AKFURNITURE_D2_CH_FOO
 10
1.41657
 20
0.57808
 30
0
  0
VERTEX
  8
72_ARTEK_AKFURNITURE_D2_CH_FOO
 10
1.41794
 20
0.577547
 30
0
  0
VERTEX
  8
72_ARTEK_AKFURNITURE_D2_CH_FOO
 10
1.4192
 20
0.57677
 30
0
  0
VERTEX
  8
72_ARTEK_AKFURNITURE_D2_CH_FOO
 10
1.42029
 20
0.575775
 30
0
  0
VERTEX
  8
72_ARTEK_AKFURNITURE_D2_CH_FOO
 10
1.42118
 20
0.574597
 30
0
  0
VERTEX
  8
72_ARTEK_AKFURNITURE_D2_CH_FOO
 10
1.42184
 20
0.573275
 30
0
  0
VERTEX
  8
72_ARTEK_AKFURNITURE_D2_CH_FOO
 10
1.42224
 20
0.571856
 30
0
  0
VERTEX
  8
72_ARTEK_AKFURNITURE_D2_CH_FOO
 10
1.42238
 20
0.570386
 30
0
  0
SEQEND
  0
POLYLINE
  8
72_ARTEK_AKFURNITURE_D2_CH_FOO
 66
     1
 70
     0
 10
0.0
 20
0.0
 30
0.0
  0
VERTEX
  8
72_ARTEK_AKFURNITURE_D2_CH_FOO
 10
1.40238
 20
0.553886
 30
0
  0
VERTEX
  8
72_ARTEK_AKFURNITURE_D2_CH_FOO
 10
1.40238
 20
0.571886
 30
0
  0
VERTEX
  8
72_ARTEK_AKFURNITURE_D2_CH_FOO
 10
1.40638
 20
0.571886
 30
0
  0
VERTEX
  8
72_ARTEK_AKFURNITURE_D2_CH_FOO
 10
1.40638
 20
0.553886
 30
0
  0
VERTEX
  8
72_ARTEK_AKFURNITURE_D2_CH_FOO
 10
1.40238
 20
0.553886
 30
0
  0
SEQEND
  0
POLYLINE
  8
72_ARTEK_AKFURNITURE_D2_CH_FOO
 66
     1
 70
     0
 10
0.0
 20
0.0
 30
0.0
  0
VERTEX
  8
72_ARTEK_AKFURNITURE_D2_CH_FOO
 10
1.42238
 20
-0.0436145
 30
0
  0
VERTEX
  8
72_ARTEK_AKFURNITURE_D2_CH_FOO
 10
1.42238
 20
-0.0586145
 30
0
  0
VERTEX
  8
72_ARTEK_AKFURNITURE_D2_CH_FOO
 10
1.42238
 20
-0.0586145
 30
0
  0
VERTEX
  8
72_ARTEK_AKFURNITURE_D2_CH_FOO
 10
1.42224
 20
-0.0600845
 30
0
  0
VERTEX
  8
72_ARTEK_AKFURNITURE_D2_CH_FOO
 10
1.42184
 20
-0.0615044
 30
0
  0
VERTEX
  8
72_ARTEK_AKFURNITURE_D2_CH_FOO
 10
1.42118
 20
-0.0628259
 30
0
  0
VERTEX
  8
72_ARTEK_AKFURNITURE_D2_CH_FOO
 10
1.42029
 20
-0.064004
 30
0
  0
VERTEX
  8
72_ARTEK_AKFURNITURE_D2_CH_FOO
 10
1.4192
 20
-0.0649986
 30
0
  0
VERTEX
  8
72_ARTEK_AKFURNITURE_D2_CH_FOO
 10
1.41794
 20
-0.0657758
 30
0
  0
VERTEX
  8
72_ARTEK_AKFURNITURE_D2_CH_FOO
 10
1.41657
 20
-0.0663091
 30
0
  0
VERTEX
  8
72_ARTEK_AKFURNITURE_D2_CH_FOO
 10
1.41512
 20
-0.0665804
 30
0
  0
VERTEX
  8
72_ARTEK_AKFURNITURE_D2_CH_FOO
 10
1.41364
 20
-0.0665804
 30
0
  0
VERTEX
  8
72_ARTEK_AKFURNITURE_D2_CH_FOO
 10
1.41219
 20
-0.0663091
 30
0
  0
VERTEX
  8
72_ARTEK_AKFURNITURE_D2_CH_FOO
 10
1.41081
 20
-0.0657758
 30
0
  0
VERTEX
  8
72_ARTEK_AKFURNITURE_D2_CH_FOO
 10
1.40956
 20
-0.0649987
 30
0
  0
VERTEX
  8
72_ARTEK_AKFURNITURE_D2_CH_FOO
 10
1.40847
 20
-0.0640041
 30
0
  0
VERTEX
  8
72_ARTEK_AKFURNITURE_D2_CH_FOO
 10
1.40758
 20
-0.062826
 30
0
  0
VERTEX
  8
72_ARTEK_AKFURNITURE_D2_CH_FOO
 10
1.40692
 20
-0.0615045
 30
0
  0
VERTEX
  8
72_ARTEK_AKFURNITURE_D2_CH_FOO
 10
1.40651
 20
-0.0600845
 30
0
  0
VERTEX
  8
72_ARTEK_AKFURNITURE_D2_CH_FOO
 10
1.40638
 20
-0.0586145
 30
0
  0
VERTEX
  8
72_ARTEK_AKFURNITURE_D2_CH_FOO
 10
1.40638
 20
-0.0436145
 30
0
  0
VERTEX
  8
72_ARTEK_AKFURNITURE_D2_CH_FOO
 10
1.40638
 20
-0.0436145
 30
0
  0
VERTEX
  8
72_ARTEK_AKFURNITURE_D2_CH_FOO
 10
1.40651
 20
-0.0421445
 30
0
  0
VERTEX
  8
72_ARTEK_AKFURNITURE_D2_CH_FOO
 10
1.40692
 20
-0.0407245
 30
0
  0
VERTEX
  8
72_ARTEK_AKFURNITURE_D2_CH_FOO
 10
1.40758
 20
-0.039403
 30
0
  0
VERTEX
  8
72_ARTEK_AKFURNITURE_D2_CH_FOO
 10
1.40847
 20
-0.0382249
 30
0
  0
VERTEX
  8
72_ARTEK_AKFURNITURE_D2_CH_FOO
 10
1.40956
 20
-0.0372303
 30
0
  0
VERTEX
  8
72_ARTEK_AKFURNITURE_D2_CH_FOO
 10
1.41081
 20
-0.0364531
 30
0
  0
VERTEX
  8
72_ARTEK_AKFURNITURE_D2_CH_FOO
 10
1.41219
 20
-0.0359198
 30
0
  0
VERTEX
  8
72_ARTEK_AKFURNITURE_D2_CH_FOO
 10
1.41364
 20
-0.0356486
 30
0
  0
VERTEX
  8
72_ARTEK_AKFURNITURE_D2_CH_FOO
 10
1.41512
 20
-0.0356486
 30
0
  0
VERTEX
  8
72_ARTEK_AKFURNITURE_D2_CH_FOO
 10
1.41657
 20
-0.0359198
 30
0
  0
VERTEX
  8
72_ARTEK_AKFURNITURE_D2_CH_FOO
 10
1.41794
 20
-0.0364531
 30
0
  0
VERTEX
  8
72_ARTEK_AKFURNITURE_D2_CH_FOO
 10
1.4192
 20
-0.0372303
 30
0
  0
VERTEX
  8
72_ARTEK_AKFURNITURE_D2_CH_FOO
 10
1.42029
 20
-0.0382249
 30
0
  0
VERTEX
  8
72_ARTEK_AKFURNITURE_D2_CH_FOO
 10
1.42118
 20
-0.039403
 30
0
  0
VERTEX
  8
72_ARTEK_AKFURNITURE_D2_CH_FOO
 10
1.42184
 20
-0.0407245
 30
0
  0
VERTEX
  8
72_ARTEK_AKFURNITURE_D2_CH_FOO
 10
1.42224
 20
-0.0421445
 30
0
  0
VERTEX
  8
72_ARTEK_AKFURNITURE_D2_CH_FOO
 10
1.42238
 20
-0.0436145
 30
0
  0
SEQEND
  0
POLYLINE
  8
72_ARTEK_AKFURNITURE_D2_CH_FOO
 66
     1
 70
     0
 10
0.0
 20
0.0
 30
0.0
  0
VERTEX
  8
72_ARTEK_AKFURNITURE_D2_CH_FOO
 10
1.40238
 20
-0.0601145
 30
0
  0
VERTEX
  8
72_ARTEK_AKFURNITURE_D2_CH_FOO
 10
1.40238
 20
-0.0421145
 30
0
  0
VERTEX
  8
72_ARTEK_AKFURNITURE_D2_CH_FOO
 10
1.40638
 20
-0.0421145
 30
0
  0
VERTEX
  8
72_ARTEK_AKFURNITURE_D2_CH_FOO
 10
1.40638
 20
-0.0601145
 30
0
  0
VERTEX
  8
72_ARTEK_AKFURNITURE_D2_CH_FOO
 10
1.40238
 20
-0.0601145
 30
0
  0
SEQEND
  0
POLYLINE
  8
72_ARTEK_AKFURNITURE_D2SNAP
 66
     1
 70
     0
 10
0.0
 20
0.0
 30
0.0
  0
VERTEX
  8
72_ARTEK_AKFURNITURE_D2SNAP
 10
0.568878
 20
0.255152
 30
0
  0
VERTEX
  8
72_ARTEK_AKFURNITURE_D2SNAP
 10
0.568637
 20
0.257591
 30
0
  0
VERTEX
  8
72_ARTEK_AKFURNITURE_D2SNAP
 10
0.567926
 20
0.259936
 30
0
  0
VERTEX
  8
72_ARTEK_AKFURNITURE_D2SNAP
 10
0.566771
 20
0.262097
 30
0
  0
VERTEX
  8
72_ARTEK_AKFURNITURE_D2SNAP
 10
0.565216
 20
0.263991
 30
0
  0
VERTEX
  8
72_ARTEK_AKFURNITURE_D2SNAP
 10
0.563322
 20
0.265545
 30
0
  0
VERTEX
  8
72_ARTEK_AKFURNITURE_D2SNAP
 10
0.561161
 20
0.266701
 30
0
  0
VERTEX
  8
72_ARTEK_AKFURNITURE_D2SNAP
 10
0.558816
 20
0.267412
 30
0
  0
VERTEX
  8
72_ARTEK_AKFURNITURE_D2SNAP
 10
0.556378
 20
0.267652
 30
0
  0
VERTEX
  8
72_ARTEK_AKFURNITURE_D2SNAP
 10
0.553939
 20
0.267412
 30
0
  0
VERTEX
  8
72_ARTEK_AKFURNITURE_D2SNAP
 10
0.551594
 20
0.266701
 30
0
  0
VERTEX
  8
72_ARTEK_AKFURNITURE_D2SNAP
 10
0.549433
 20
0.265545
 30
0
  0
VERTEX
  8
72_ARTEK_AKFURNITURE_D2SNAP
 10
0.547539
 20
0.263991
 30
0
  0
VERTEX
  8
72_ARTEK_AKFURNITURE_D2SNAP
 10
0.545984
 20
0.262097
 30
0
  0
VERTEX
  8
72_ARTEK_AKFURNITURE_D2SNAP
 10
0.544829
 20
0.259936
 30
0
  0
VERTEX
  8
72_ARTEK_AKFURNITURE_D2SNAP
 10
0.544118
 20
0.257591
 30
0
  0
VERTEX
  8
72_ARTEK_AKFURNITURE_D2SNAP
 10
0.543878
 20
0.255152
 30
0
  0
VERTEX
  8
72_ARTEK_AKFURNITURE_D2SNAP
 10
0.544118
 20
0.252713
 30
0
  0
VERTEX
  8
72_ARTEK_AKFURNITURE_D2SNAP
 10
0.544829
 20
0.250369
 30
0
  0
VERTEX
  8
72_ARTEK_AKFURNITURE_D2SNAP
 10
0.545984
 20
0.248207
 30
0
  0
VERTEX
  8
72_ARTEK_AKFURNITURE_D2SNAP
 10
0.547539
 20
0.246313
 30
0
  0
VERTEX
  8
72_ARTEK_AKFURNITURE_D2SNAP
 10
0.549433
 20
0.244759
 30
0
  0
VERTEX
  8
72_ARTEK_AKFURNITURE_D2SNAP
 10
0.551594
 20
0.243604
 30
0
  0
VERTEX
  8
72_ARTEK_AKFURNITURE_D2SNAP
 10
0.553939
 20
0.242892
 30
0
  0
VERTEX
  8
72_ARTEK_AKFURNITURE_D2SNAP
 10
0.556378
 20
0.242652
 30
0
  0
VERTEX
  8
72_ARTEK_AKFURNITURE_D2SNAP
 10
0.558816
 20
0.242892
 30
0
  0
VERTEX
  8
72_ARTEK_AKFURNITURE_D2SNAP
 10
0.561161
 20
0.243604
 30
0
  0
VERTEX
  8
72_ARTEK_AKFURNITURE_D2SNAP
 10
0.563322
 20
0.244759
 30
0
  0
VERTEX
  8
72_ARTEK_AKFURNITURE_D2SNAP
 10
0.565216
 20
0.246313
 30
0
  0
VERTEX
  8
72_ARTEK_AKFURNITURE_D2SNAP
 10
0.566771
 20
0.248207
 30
0
  0
VERTEX
  8
72_ARTEK_AKFURNITURE_D2SNAP
 10
0.567926
 20
0.250369
 30
0
  0
VERTEX
  8
72_ARTEK_AKFURNITURE_D2SNAP
 10
0.568637
 20
0.252713
 30
0
  0
VERTEX
  8
72_ARTEK_AKFURNITURE_D2SNAP
 10
0.568878
 20
0.255152
 30
0
  0
SEQEND
  0
POLYLINE
  8
72_ARTEK_AKFURNITURE_D2SNAP
 66
     1
 70
     0
 10
0.0
 20
0.0
 30
0.0
  0
VERTEX
  8
72_ARTEK_AKFURNITURE_D2SNAP
 10
0.5387
 20
0.237474
 30
0
  0
VERTEX
  8
72_ARTEK_AKFURNITURE_D2SNAP
 10
0.574055
 20
0.27283
 30
0
  0
SEQEND
  0
POLYLINE
  8
72_ARTEK_AKFURNITURE_D2SNAP
 66
     1
 70
     0
 10
0.0
 20
0.0
 30
0.0
  0
VERTEX
  8
72_ARTEK_AKFURNITURE_D2SNAP
 10
0.5387
 20
0.27283
 30
0
  0
VERTEX
  8
72_ARTEK_AKFURNITURE_D2SNAP
 10
0.574055
 20
0.237474
 30
0
  0
SEQEND
  0
POLYLINE
  8
72_ARTEK_AKFURNITURE_D2_CH_SEA
 66
     1
 70
     0
 10
0.0
 20
0.0
 30
0.0
  0
VERTEX
  8
72_ARTEK_AKFURNITURE_D2_CH_SEA
 10
0.275378
 20
-0.0935945
 30
0
  0
VERTEX
  8
72_ARTEK_AKFURNITURE_D2_CH_SEA
 10
0.275378
 20
0.339112
 30
0
  0
VERTEX
  8
72_ARTEK_AKFURNITURE_D2_CH_SEA
 10
0.275378
 20
0.3932
 30
0
  0
VERTEX
  8
72_ARTEK_AKFURNITURE_D2_CH_SEA
 10
0.275378
 20
0.396581
 30
0
  0
VERTEX
  8
72_ARTEK_AKFURNITURE_D2_CH_SEA
 10
0.275378
 20
0.397426
 30
0
  0
VERTEX
  8
72_ARTEK_AKFURNITURE_D2_CH_SEA
 10
0.274963
 20
0.397465
 30
0
  0
VERTEX
  8
72_ARTEK_AKFURNITURE_D2_CH_SEA
 10
0.273801
 20
0.39673
 30
0
  0
VERTEX
  8
72_ARTEK_AKFURNITURE_D2_CH_SEA
 10
0.269141
 20
0.395033
 30
0
  0
VERTEX
  8
72_ARTEK_AKFURNITURE_D2_CH_SEA
 10
0.265755
 20
0.394326
 30
0
  0
VERTEX
  8
72_ARTEK_AKFURNITURE_D2_CH_SEA
 10
0.261095
 20
0.393817
 30
0
  0
VERTEX
  8
72_ARTEK_AKFURNITURE_D2_CH_SEA
 10
0.255671
 20
0.393542
 30
0
  0
VERTEX
  8
72_ARTEK_AKFURNITURE_D2_CH_SEA
 10
0.251902
 20
0.393537
 30
0
  0
VERTEX
  8
72_ARTEK_AKFURNITURE_D2_CH_SEA
 10
0.246401
 20
0.393511
 30
0
  0
VERTEX
  8
72_ARTEK_AKFURNITURE_D2_CH_SEA
 10
0.238297
 20
0.393446
 30
0
  0
VERTEX
  8
72_ARTEK_AKFURNITURE_D2_CH_SEA
 10
0.233363
 20
0.393401
 30
0
  0
VERTEX
  8
72_ARTEK_AKFURNITURE_D2_CH_SEA
 10
0.226191
 20
0.393322
 30
0
  0
VERTEX
  8
72_ARTEK_AKFURNITURE_D2_CH_SEA
 10
0.20931
 20
0.393127
 30
0
  0
VERTEX
  8
72_ARTEK_AKFURNITURE_D2_CH_SEA
 10
0.200312
 20
0.393025
 30
0
  0
VERTEX
  8
72_ARTEK_AKFURNITURE_D2_CH_SEA
 10
0.190182
 20
0.392915
 30
0
  0
VERTEX
  8
72_ARTEK_AKFURNITURE_D2_CH_SEA
 10
0.184047
 20
0.392851
 30
0
  0
VERTEX
  8
72_ARTEK_AKFURNITURE_D2_CH_SEA
 10
0.176544
 20
0.392778
 30
0
  0
VERTEX
  8
72_ARTEK_AKFURNITURE_D2_CH_SEA
 10
0.167674
 20
0.392694
 30
0
  0
VERTEX
  8
72_ARTEK_AKFURNITURE_D2_CH_SEA
 10
0.157466
 20
0.392599
 30
0
  0
VERTEX
  8
72_ARTEK_AKFURNITURE_D2_CH_SEA
 10
0.0725475
 20
0.3921
 30
0
  0
VERTEX
  8
72_ARTEK_AKFURNITURE_D2_CH_SEA
 10
0.0633774
 20
0.392073
 30
0
  0
VERTEX
  8
72_ARTEK_AKFURNITURE_D2_CH_SEA
 10
0.0557691
 20
0.392054
 30
0
  0
VERTEX
  8
72_ARTEK_AKFURNITURE_D2_CH_SEA
 10
0.0497226
 20
0.39204
 30
0
  0
VERTEX
  8
72_ARTEK_AKFURNITURE_D2_CH_SEA
 10
0.0449433
 20
0.392033
 30
0
  0
VERTEX
  8
72_ARTEK_AKFURNITURE_D2_CH_SEA
 10
0.0346155
 20
0.392024
 30
0
  0
VERTEX
  8
72_ARTEK_AKFURNITURE_D2_CH_SEA
 10
0.0225628
 20
0.39202
 30
0
  0
VERTEX
  8
72_ARTEK_AKFURNITURE_D2_CH_SEA
 10
0.0151272
 20
0.392019
 30
0
  0
VERTEX
  8
72_ARTEK_AKFURNITURE_D2_CH_SEA
 10
0.00651776
 20
0.392019
 30
0
  0
VERTEX
  8
72_ARTEK_AKFURNITURE_D2_CH_SEA
 10
-0.0135162
 20
0.392019
 30
0
  0
VERTEX
  8
72_ARTEK_AKFURNITURE_D2_CH_SEA
 10
-0.0226525
 20
0.392019
 30
0
  0
VERTEX
  8
72_ARTEK_AKFURNITURE_D2_CH_SEA
 10
-0.030615
 20
0.39202
 30
0
  0
VERTEX
  8
72_ARTEK_AKFURNITURE_D2_CH_SEA
 10
-0.043329
 20
0.392022
 30
0
  0
VERTEX
  8
72_ARTEK_AKFURNITURE_D2_CH_SEA
 10
-0.0641065
 20
0.392047
 30
0
  0
VERTEX
  8
72_ARTEK_AKFURNITURE_D2_CH_SEA
 10
-0.0710137
 20
0.392064
 30
0
  0
VERTEX
  8
72_ARTEK_AKFURNITURE_D2_CH_SEA
 10
-0.0794827
 20
0.392087
 30
0
  0
VERTEX
  8
72_ARTEK_AKFURNITURE_D2_CH_SEA
 10
-0.100137
 20
0.392155
 30
0
  0
VERTEX
  8
72_ARTEK_AKFURNITURE_D2_CH_SEA
 10
-0.14267
 20
0.39239
 30
0
  0
VERTEX
  8
72_ARTEK_AKFURNITURE_D2_CH_SEA
 10
-0.163937
 20
0.392557
 30
0
  0
VERTEX
  8
72_ARTEK_AKFURNITURE_D2_CH_SEA
 10
-0.183976
 20
0.392741
 30
0
  0
VERTEX
  8
72_ARTEK_AKFURNITURE_D2_CH_SEA
 10
-0.192093
 20
0.39282
 30
0
  0
VERTEX
  8
72_ARTEK_AKFURNITURE_D2_CH_SEA
 10
-0.198842
 20
0.392888
 30
0
  0
VERTEX
  8
72_ARTEK_AKFURNITURE_D2_CH_SEA
 10
-0.209383
 20
0.393001
 30
0
  0
VERTEX
  8
72_ARTEK_AKFURNITURE_D2_CH_SEA
 10
-0.227103
 20
0.393202
 30
0
  0
VERTEX
  8
72_ARTEK_AKFURNITURE_D2_CH_SEA
 10
-0.243194
 20
0.393386
 30
0
  0
VERTEX
  8
72_ARTEK_AKFURNITURE_D2_CH_SEA
 10
-0.248618
 20
0.393439
 30
0
  0
VERTEX
  8
72_ARTEK_AKFURNITURE_D2_CH_SEA
 10
-0.252691
 20
0.393472
 30
0
  0
VERTEX
  8
72_ARTEK_AKFURNITURE_D2_CH_SEA
 10
-0.260303
 20
0.393529
 30
0
  0
VERTEX
  8
72_ARTEK_AKFURNITURE_D2_CH_SEA
 10
-0.264597
 20
0.393537
 30
0
  0
VERTEX
  8
72_ARTEK_AKFURNITURE_D2_CH_SEA
 10
-0.268726
 20
0.393599
 30
0
  0
VERTEX
  8
72_ARTEK_AKFURNITURE_D2_CH_SEA
 10
-0.274445
 20
0.393999
 30
0
  0
VERTEX
  8
72_ARTEK_AKFURNITURE_D2_CH_SEA
 10
-0.281513
 20
0.39534
 30
0
  0
VERTEX
  8
72_ARTEK_AKFURNITURE_D2_CH_SEA
 10
-0.285923
 20
0.397275
 30
0
  0
VERTEX
  8
72_ARTEK_AKFURNITURE_D2_CH_SEA
 10
-0.287929
 20
0.399238
 30
0
  0
VERTEX
  8
72_ARTEK_AKFURNITURE_D2_CH_SEA
 10
-0.288396
 20
0.400174
 30
0
  0
VERTEX
  8
72_ARTEK_AKFURNITURE_D2_CH_SEA
 10
-0.288882
 20
0.401981
 30
0
  0
VERTEX
  8
72_ARTEK_AKFURNITURE_D2_CH_SEA
 10
-0.289482
 20
0.404768
 30
0
  0
VERTEX
  8
72_ARTEK_AKFURNITURE_D2_CH_SEA
 10
-0.289485
 20
0.400489
 30
0
  0
VERTEX
  8
72_ARTEK_AKFURNITURE_D2_CH_SEA
 10
-0.289486
 20
0.392935
 30
0
  0
VERTEX
  8
72_ARTEK_AKFURNITURE_D2_CH_SEA
 10
-0.289486
 20
0.276854
 30
0
  0
VERTEX
  8
72_ARTEK_AKFURNITURE_D2_CH_SEA
 10
-0.289486
 20
0.044691
 30
0
  0
VERTEX
  8
72_ARTEK_AKFURNITURE_D2_CH_SEA
 10
-0.289486
 20
-0.0713905
 30
0
  0
VERTEX
  8
72_ARTEK_AKFURNITURE_D2_CH_SEA
 10
-0.289486
 20
-0.0786455
 30
0
  0
VERTEX
  8
72_ARTEK_AKFURNITURE_D2_CH_SEA
 10
-0.289493
 20
-0.0846128
 30
0
  0
VERTEX
  8
72_ARTEK_AKFURNITURE_D2_CH_SEA
 10
-0.289049
 20
-0.0885869
 30
0
  0
VERTEX
  8
72_ARTEK_AKFURNITURE_D2_CH_SEA
 10
-0.288359
 20
-0.0917021
 30
0
  0
VERTEX
  8
72_ARTEK_AKFURNITURE_D2_CH_SEA
 10
-0.284147
 20
-0.0951041
 30
0
  0
VERTEX
  8
72_ARTEK_AKFURNITURE_D2_CH_SEA
 10
-0.281185
 20
-0.0962255
 30
0
  0
VERTEX
  8
72_ARTEK_AKFURNITURE_D2_CH_SEA
 10
-0.27695
 20
-0.0972455
 30
0
  0
VERTEX
  8
72_ARTEK_AKFURNITURE_D2_CH_SEA
 10
-0.271531
 20
-0.097995
 30
0
  0
VERTEX
  8
72_ARTEK_AKFURNITURE_D2_CH_SEA
 10
-0.267531
 20
-0.0983683
 30
0
  0
VERTEX
  8
72_ARTEK_AKFURNITURE_D2_CH_SEA
 10
-0.263628
 20
-0.0986394
 30
0
  0
VERTEX
  8
72_ARTEK_AKFURNITURE_D2_CH_SEA
 10
-0.261029
 20
-0.0987671
 30
0
  0
VERTEX
  8
72_ARTEK_AKFURNITURE_D2_CH_SEA
 10
-0.256414
 20
-0.0988723
 30
0
  0
VERTEX
  8
72_ARTEK_AKFURNITURE_D2_CH_SEA
 10
-0.249807
 20
-0.0989753
 30
0
  0
VERTEX
  8
72_ARTEK_AKFURNITURE_D2_CH_SEA
 10
-0.241828
 20
-0.0990656
 30
0
  0
VERTEX
  8
72_ARTEK_AKFURNITURE_D2_CH_SEA
 10
-0.23371
 20
-0.099104
 30
0
  0
VERTEX
  8
72_ARTEK_AKFURNITURE_D2_CH_SEA
 10
-0.223648
 20
-0.0991321
 30
0
  0
VERTEX
  8
72_ARTEK_AKFURNITURE_D2_CH_SEA
 10
-0.19885
 20
-0.099166
 30
0
  0
VERTEX
  8
72_ARTEK_AKFURNITURE_D2_CH_SEA
 10
-0.192415
 20
-0.0991672
 30
0
  0
VERTEX
  8
72_ARTEK_AKFURNITURE_D2_CH_SEA
 10
-0.190806
 20
-0.0991676
 30
0
  0
VERTEX
  8
72_ARTEK_AKFURNITURE_D2_CH_SEA
 10
-0.189353
 20
-0.0991681
 30
0
  0
VERTEX
  8
72_ARTEK_AKFURNITURE_D2_CH_SEA
 10
-0.186557
 20
-0.0991693
 30
0
  0
VERTEX
  8
72_ARTEK_AKFURNITURE_D2_CH_SEA
 10
-0.182421
 20
-0.0991712
 30
0
  0
VERTEX
  8
72_ARTEK_AKFURNITURE_D2_CH_SEA
 10
-0.176942
 20
-0.0991739
 30
0
  0
VERTEX
  8
72_ARTEK_AKFURNITURE_D2_CH_SEA
 10
-0.162933
 20
-0.0991809
 30
0
  0
VERTEX
  8
72_ARTEK_AKFURNITURE_D2_CH_SEA
 10
-0.150566
 20
-0.0991879
 30
0
  0
VERTEX
  8
72_ARTEK_AKFURNITURE_D2_CH_SEA
 10
-0.140882
 20
-0.0991943
 30
0
  0
VERTEX
  8
72_ARTEK_AKFURNITURE_D2_CH_SEA
 10
-0.124247
 20
-0.099207
 30
0
  0
VERTEX
  8
72_ARTEK_AKFURNITURE_D2_CH_SEA
 10
-0.0909752
 20
-0.0992324
 30
0
  0
VERTEX
  8
72_ARTEK_AKFURNITURE_D2_CH_SEA
 10
-0.0739409
 20
-0.0992399
 30
0
  0
VERTEX
  8
72_ARTEK_AKFURNITURE_D2_CH_SEA
 10
-0.0623309
 20
-0.099243
 30
0
  0
VERTEX
  8
72_ARTEK_AKFURNITURE_D2_CH_SEA
 10
-0.0473945
 20
-0.0992464
 30
0
  0
VERTEX
  8
72_ARTEK_AKFURNITURE_D2_CH_SEA
 10
0.0191457
 20
-0.0992494
 30
0
  0
VERTEX
  8
72_ARTEK_AKFURNITURE_D2_CH_SEA
 10
0.0357808
 20
-0.0992465
 30
0
  0
VERTEX
  8
72_ARTEK_AKFURNITURE_D2_CH_SEA
 10
0.0507908
 20
-0.0992431
 30
0
  0
VERTEX
  8
72_ARTEK_AKFURNITURE_D2_CH_SEA
 10
0.0624745
 20
-0.09924
 30
0
  0
VERTEX
  8
72_ARTEK_AKFURNITURE_D2_CH_SEA
 10
0.0712281
 20
-0.0992369
 30
0
  0
VERTEX
  8
72_ARTEK_AKFURNITURE_D2_CH_SEA
 10
0.104499
 20
-0.0992136
 30
0
  0
VERTEX
  8
72_ARTEK_AKFURNITURE_D2_CH_SEA
 10
0.121135
 20
-0.0992008
 30
0
  0
VERTEX
  8
72_ARTEK_AKFURNITURE_D2_CH_SEA
 10
0.129453
 20
-0.0991944
 30
0
  0
VERTEX
  8
72_ARTEK_AKFURNITURE_D2_CH_SEA
 10
0.139077
 20
-0.099188
 30
0
  0
VERTEX
  8
72_ARTEK_AKFURNITURE_D2_CH_SEA
 10
0.151385
 20
-0.0991811
 30
0
  0
VERTEX
  8
72_ARTEK_AKFURNITURE_D2_CH_SEA
 10
0.165423
 20
-0.099174
 30
0
  0
VERTEX
  8
72_ARTEK_AKFURNITURE_D2_CH_SEA
 10
0.170961
 20
-0.0991713
 30
0
  0
VERTEX
  8
72_ARTEK_AKFURNITURE_D2_CH_SEA
 10
0.175158
 20
-0.0991694
 30
0
  0
VERTEX
  8
72_ARTEK_AKFURNITURE_D2_CH_SEA
 10
0.178012
 20
-0.0991681
 30
0
  0
VERTEX
  8
72_ARTEK_AKFURNITURE_D2_CH_SEA
 10
0.179525
 20
-0.0991676
 30
0
  0
VERTEX
  8
72_ARTEK_AKFURNITURE_D2_CH_SEA
 10
0.192392
 20
-0.0991649
 30
0
  0
VERTEX
  8
72_ARTEK_AKFURNITURE_D2_CH_SEA
 10
0.216457
 20
-0.0991209
 30
0
  0
VERTEX
  8
72_ARTEK_AKFURNITURE_D2_CH_SEA
 10
0.225549
 20
-0.0990947
 30
0
  0
VERTEX
  8
72_ARTEK_AKFURNITURE_D2_CH_SEA
 10
0.233571
 20
-0.0990379
 30
0
  0
VERTEX
  8
72_ARTEK_AKFURNITURE_D2_CH_SEA
 10
0.241251
 20
-0.0989363
 30
0
  0
VERTEX
  8
72_ARTEK_AKFURNITURE_D2_CH_SEA
 10
0.247127
 20
-0.0988353
 30
0
  0
VERTEX
  8
72_ARTEK_AKFURNITURE_D2_CH_SEA
 10
0.250974
 20
-0.0987222
 30
0
  0
VERTEX
  8
72_ARTEK_AKFURNITURE_D2_CH_SEA
 10
0.253121
 20
-0.0985891
 30
0
  0
VERTEX
  8
72_ARTEK_AKFURNITURE_D2_CH_SEA
 10
0.261358
 20
-0.097879
 30
0
  0
VERTEX
  8
72_ARTEK_AKFURNITURE_D2_CH_SEA
 10
0.266584
 20
-0.097074
 30
0
  0
VERTEX
  8
72_ARTEK_AKFURNITURE_D2_CH_SEA
 10
0.270586
 20
-0.0960203
 30
0
  0
VERTEX
  8
72_ARTEK_AKFURNITURE_D2_CH_SEA
 10
0.275378
 20
-0.0935945
 30
0
  0
SEQEND
  0
POLYLINE
  8
72_ARTEK_AKFURNITURE_D2_CH_SEA
 66
     1
 70
     0
 10
0.0
 20
0.0
 30
0.0
  0
VERTEX
  8
72_ARTEK_AKFURNITURE_D2_CH_SEA
 10
0.839495
 20
0.396438
 30
0
  0
VERTEX
  8
72_ARTEK_AKFURNITURE_D2_CH_SEA
 10
0.838253
 20
0.39716
 30
0
  0
VERTEX
  8
72_ARTEK_AKFURNITURE_D2_CH_SEA
 10
0.837481
 20
0.397677
 30
0
  0
VERTEX
  8
72_ARTEK_AKFURNITURE_D2_CH_SEA
 10
0.837378
 20
0.396861
 30
0
  0
VERTEX
  8
72_ARTEK_AKFURNITURE_D2_CH_SEA
 10
0.837378
 20
0.392794
 30
0
  0
VERTEX
  8
72_ARTEK_AKFURNITURE_D2_CH_SEA
 10
0.837378
 20
0.38466
 30
0
  0
VERTEX
  8
72_ARTEK_AKFURNITURE_D2_CH_SEA
 10
0.837378
 20
0.368393
 30
0
  0
VERTEX
  8
72_ARTEK_AKFURNITURE_D2_CH_SEA
 10
0.837378
 20
0.33586
 30
0
  0
VERTEX
  8
72_ARTEK_AKFURNITURE_D2_CH_SEA
 10
0.837378
 20
0.270792
 30
0
  0
VERTEX
  8
72_ARTEK_AKFURNITURE_D2_CH_SEA
 10
0.837378
 20
0.140656
 30
0
  0
VERTEX
  8
72_ARTEK_AKFURNITURE_D2_CH_SEA
 10
0.837378
 20
0.0105205
 30
0
  0
VERTEX
  8
72_ARTEK_AKFURNITURE_D2_CH_SEA
 10
0.837378
 20
-0.0545473
 30
0
  0
VERTEX
  8
72_ARTEK_AKFURNITURE_D2_CH_SEA
 10
0.837378
 20
-0.0870812
 30
0
  0
VERTEX
  8
72_ARTEK_AKFURNITURE_D2_CH_SEA
 10
0.837378
 20
-0.0911479
 30
0
  0
VERTEX
  8
72_ARTEK_AKFURNITURE_D2_CH_SEA
 10
0.837378
 20
-0.0931813
 30
0
  0
VERTEX
  8
72_ARTEK_AKFURNITURE_D2_CH_SEA
 10
0.838472
 20
-0.0943549
 30
0
  0
VERTEX
  8
72_ARTEK_AKFURNITURE_D2_CH_SEA
 10
0.84185
 20
-0.095912
 30
0
  0
VERTEX
  8
72_ARTEK_AKFURNITURE_D2_CH_SEA
 10
0.847426
 20
-0.0973137
 30
0
  0
VERTEX
  8
72_ARTEK_AKFURNITURE_D2_CH_SEA
 10
0.854515
 20
-0.0982027
 30
0
  0
VERTEX
  8
72_ARTEK_AKFURNITURE_D2_CH_SEA
 10
0.859572
 20
-0.0985849
 30
0
  0
VERTEX
  8
72_ARTEK_AKFURNITURE_D2_CH_SEA
 10
0.862818
 20
-0.0987621
 30
0
  0
VERTEX
  8
72_ARTEK_AKFURNITURE_D2_CH_SEA
 10
0.869471
 20
-0.0989044
 30
0
  0
VERTEX
  8
72_ARTEK_AKFURNITURE_D2_CH_SEA
 10
0.879588
 20
-0.0990421
 30
0
  0
VERTEX
  8
72_ARTEK_AKFURNITURE_D2_CH_SEA
 10
0.890629
 20
-0.099105
 30
0
  0
VERTEX
  8
72_ARTEK_AKFURNITURE_D2_CH_SEA
 10
0.897257
 20
-0.0991236
 30
0
  0
VERTEX
  8
72_ARTEK_AKFURNITURE_D2_CH_SEA
 10
0.905073
 20
-0.0991445
 30
0
  0
VERTEX
  8
72_ARTEK_AKFURNITURE_D2_CH_SEA
 10
0.922058
 20
-0.0991654
 30
0
  0
VERTEX
  8
72_ARTEK_AKFURNITURE_D2_CH_SEA
 10
0.930812
 20
-0.0991671
 30
0
  0
VERTEX
  8
72_ARTEK_AKFURNITURE_D2_CH_SEA
 10
0.933001
 20
-0.0991675
 30
0
  0
VERTEX
  8
72_ARTEK_AKFURNITURE_D2_CH_SEA
 10
0.934915
 20
-0.0991682
 30
0
  0
VERTEX
  8
72_ARTEK_AKFURNITURE_D2_CH_SEA
 10
0.939268
 20
-0.0991701
 30
0
  0
VERTEX
  8
72_ARTEK_AKFURNITURE_D2_CH_SEA
 10
0.946105
 20
-0.0991734
 30
0
  0
VERTEX
  8
72_ARTEK_AKFURNITURE_D2_CH_SEA
 10
0.955391
 20
-0.099178
 30
0
  0
VERTEX
  8
72_ARTEK_AKFURNITURE_D2_CH_SEA
 10
0.964823
 20
-0.0991829
 30
0
  0
VERTEX
  8
72_ARTEK_AKFURNITURE_D2_CH_SEA
 10
0.973013
 20
-0.0991876
 30
0
  0
VERTEX
  8
72_ARTEK_AKFURNITURE_D2_CH_SEA
 10
0.985801
 20
-0.0991963
 30
0
  0
VERTEX
  8
72_ARTEK_AKFURNITURE_D2_CH_SEA
 10
0.997118
 20
-0.099205
 30
0
  0
VERTEX
  8
72_ARTEK_AKFURNITURE_D2_CH_SEA
 10
1.01975
 20
-0.0992226
 30
0
  0
VERTEX
  8
72_ARTEK_AKFURNITURE_D2_CH_SEA
 10
1.04239
 20
-0.0992372
 30
0
  0
VERTEX
  8
72_ARTEK_AKFURNITURE_D2_CH_SEA
 10
1.04819
 20
-0.0992393
 30
0
  0
VERTEX
  8
72_ARTEK_AKFURNITURE_D2_CH_SEA
 10
1.05529
 20
-0.0992414
 30
0
  0
VERTEX
  8
72_ARTEK_AKFURNITURE_D2_CH_SEA
 10
1.06392
 20
-0.0992436
 30
0
  0
VERTEX
  8
72_ARTEK_AKFURNITURE_D2_CH_SEA
 10
1.0741
 20
-0.0992459
 30
0
  0
VERTEX
  8
72_ARTEK_AKFURNITURE_D2_CH_SEA
 10
1.16446
 20
-0.0992455
 30
0
  0
VERTEX
  8
72_ARTEK_AKFURNITURE_D2_CH_SEA
 10
1.17438
 20
-0.0992432
 30
0
  0
VERTEX
  8
72_ARTEK_AKFURNITURE_D2_CH_SEA
 10
1.18276
 20
-0.0992411
 30
0
  0
VERTEX
  8
72_ARTEK_AKFURNITURE_D2_CH_SEA
 10
1.19531
 20
-0.0992368
 30
0
  0
VERTEX
  8
72_ARTEK_AKFURNITURE_D2_CH_SEA
 10
1.21794
 20
-0.0992219
 30
0
  0
VERTEX
  8
72_ARTEK_AKFURNITURE_D2_CH_SEA
 10
1.24058
 20
-0.0992042
 30
0
  0
VERTEX
  8
72_ARTEK_AKFURNITURE_D2_CH_SEA
 10
1.25189
 20
-0.0991956
 30
0
  0
VERTEX
  8
72_ARTEK_AKFURNITURE_D2_CH_SEA
 10
1.25786
 20
-0.0991913
 30
0
  0
VERTEX
  8
72_ARTEK_AKFURNITURE_D2_CH_SEA
 10
1.26502
 20
-0.0991868
 30
0
  0
VERTEX
  8
72_ARTEK_AKFURNITURE_D2_CH_SEA
 10
1.27341
 20
-0.0991821
 30
0
  0
VERTEX
  8
72_ARTEK_AKFURNITURE_D2_CH_SEA
 10
1.28305
 20
-0.0991772
 30
0
  0
VERTEX
  8
72_ARTEK_AKFURNITURE_D2_CH_SEA
 10
1.29196
 20
-0.0991728
 30
0
  0
VERTEX
  8
72_ARTEK_AKFURNITURE_D2_CH_SEA
 10
1.29838
 20
-0.0991697
 30
0
  0
VERTEX
  8
72_ARTEK_AKFURNITURE_D2_CH_SEA
 10
1.30232
 20
-0.099168
 30
0
  0
VERTEX
  8
72_ARTEK_AKFURNITURE_D2_CH_SEA
 10
1.30394
 20
-0.0991675
 30
0
  0
VERTEX
  8
72_ARTEK_AKFURNITURE_D2_CH_SEA
 10
1.30612
 20
-0.0991671
 30
0
  0
VERTEX
  8
72_ARTEK_AKFURNITURE_D2_CH_SEA
 10
1.3235
 20
-0.0991593
 30
0
  0
VERTEX
  8
72_ARTEK_AKFURNITURE_D2_CH_SEA
 10
1.33965
 20
-0.0991232
 30
0
  0
VERTEX
  8
72_ARTEK_AKFURNITURE_D2_CH_SEA
 10
1.35182
 20
-0.0990843
 30
0
  0
VERTEX
  8
72_ARTEK_AKFURNITURE_D2_CH_SEA
 10
1.36269
 20
-0.0989735
 30
0
  0
VERTEX
  8
72_ARTEK_AKFURNITURE_D2_CH_SEA
 10
1.37115
 20
-0.0988348
 30
0
  0
VERTEX
  8
72_ARTEK_AKFURNITURE_D2_CH_SEA
 10
1.37586
 20
-0.0986748
 30
0
  0
VERTEX
  8
72_ARTEK_AKFURNITURE_D2_CH_SEA
 10
1.38109
 20
-0.0983045
 30
0
  0
VERTEX
  8
72_ARTEK_AKFURNITURE_D2_CH_SEA
 10
1.38762
 20
-0.0975889
 30
0
  0
VERTEX
  8
72_ARTEK_AKFURNITURE_D2_CH_SEA
 10
1.39376
 20
-0.0962798
 30
0
  0
VERTEX
  8
72_ARTEK_AKFURNITURE_D2_CH_SEA
 10
1.3976
 20
-0.0947484
 30
0
  0
VERTEX
  8
72_ARTEK_AKFURNITURE_D2_CH_SEA
 10
1.40068
 20
-0.0924469
 30
0
  0
VERTEX
  8
72_ARTEK_AKFURNITURE_D2_CH_SEA
 10
1.40132
 20
-0.089655
 30
0
  0
VERTEX
  8
72_ARTEK_AKFURNITURE_D2_CH_SEA
 10
1.40201
 20
-0.0880334
 30
0
  0
VERTEX
  8
72_ARTEK_AKFURNITURE_D2_CH_SEA
 10
1.40225
 20
-0.0851903
 30
0
  0
VERTEX
  8
72_ARTEK_AKFURNITURE_D2_CH_SEA
 10
1.40224
 20
-0.0816757
 30
0
  0
VERTEX
  8
72_ARTEK_AKFURNITURE_D2_CH_SEA
 10
1.40224
 20
-0.0769248
 30
0
  0
VERTEX
  8
72_ARTEK_AKFURNITURE_D2_CH_SEA
 10
1.40224
 20
0.00204312
 30
0
  0
VERTEX
  8
72_ARTEK_AKFURNITURE_D2_CH_SEA
 10
1.40224
 20
0.159979
 30
0
  0
VERTEX
  8
72_ARTEK_AKFURNITURE_D2_CH_SEA
 10
1.40224
 20
0.317915
 30
0
  0
VERTEX
  8
72_ARTEK_AKFURNITURE_D2_CH_SEA
 10
1.40224
 20
0.396907
 30
0
  0
VERTEX
  8
72_ARTEK_AKFURNITURE_D2_CH_SEA
 10
1.40224
 20
0.402364
 30
0
  0
VERTEX
  8
72_ARTEK_AKFURNITURE_D2_CH_SEA
 10
1.40219
 20
0.404817
 30
0
  0
VERTEX
  8
72_ARTEK_AKFURNITURE_D2_CH_SEA
 10
1.40174
 20
0.402507
 30
0
  0
VERTEX
  8
72_ARTEK_AKFURNITURE_D2_CH_SEA
 10
1.40108
 20
0.400023
 30
0
  0
VERTEX
  8
72_ARTEK_AKFURNITURE_D2_CH_SEA
 10
1.39947
 20
0.397816
 30
0
  0
VERTEX
  8
72_ARTEK_AKFURNITURE_D2_CH_SEA
 10
1.39653
 20
0.39611
 30
0
  0
VERTEX
  8
72_ARTEK_AKFURNITURE_D2_CH_SEA
 10
1.39304
 20
0.395006
 30
0
  0
VERTEX
  8
72_ARTEK_AKFURNITURE_D2_CH_SEA
 10
1.38821
 20
0.394109
 30
0
  0
VERTEX
  8
72_ARTEK_AKFURNITURE_D2_CH_SEA
 10
1.38077
 20
0.39357
 30
0
  0
VERTEX
  8
72_ARTEK_AKFURNITURE_D2_CH_SEA
 10
1.37547
 20
0.393537
 30
0
  0
VERTEX
  8
72_ARTEK_AKFURNITURE_D2_CH_SEA
 10
1.37189
 20
0.393522
 30
0
  0
VERTEX
  8
72_ARTEK_AKFURNITURE_D2_CH_SEA
 10
1.36655
 20
0.39348
 30
0
  0
VERTEX
  8
72_ARTEK_AKFURNITURE_D2_CH_SEA
 10
1.36099
 20
0.393435
 30
0
  0
VERTEX
  8
72_ARTEK_AKFURNITURE_D2_CH_SEA
 10
1.35279
 20
0.393351
 30
0
  0
VERTEX
  8
72_ARTEK_AKFURNITURE_D2_CH_SEA
 10
1.3299
 20
0.393088
 30
0
  0
VERTEX
  8
72_ARTEK_AKFURNITURE_D2_CH_SEA
 10
1.31678
 20
0.392943
 30
0
  0
VERTEX
  8
72_ARTEK_AKFURNITURE_D2_CH_SEA
 10
1.30893
 20
0.39286
 30
0
  0
VERTEX
  8
72_ARTEK_AKFURNITURE_D2_CH_SEA
 10
1.29863
 20
0.392759
 30
0
  0
VERTEX
  8
72_ARTEK_AKFURNITURE_D2_CH_SEA
 10
1.2858
 20
0.392639
 30
0
  0
VERTEX
  8
72_ARTEK_AKFURNITURE_D2_CH_SEA
 10
1.27136
 20
0.392512
 30
0
  0
VERTEX
  8
72_ARTEK_AKFURNITURE_D2_CH_SEA
 10
1.24242
 20
0.392304
 30
0
  0
VERTEX
  8
72_ARTEK_AKFURNITURE_D2_CH_SEA
 10
1.21349
 20
0.392157
 30
0
  0
VERTEX
  8
72_ARTEK_AKFURNITURE_D2_CH_SEA
 10
1.19905
 20
0.392107
 30
0
  0
VERTEX
  8
72_ARTEK_AKFURNITURE_D2_CH_SEA
 10
1.18643
 20
0.392071
 30
0
  0
VERTEX
  8
72_ARTEK_AKFURNITURE_D2_CH_SEA
 10
1.1767
 20
0.392047
 30
0
  0
VERTEX
  8
72_ARTEK_AKFURNITURE_D2_CH_SEA
 10
1.16972
 20
0.392034
 30
0
  0
VERTEX
  8
72_ARTEK_AKFURNITURE_D2_CH_SEA
 10
1.15547
 20
0.392022
 30
0
  0
VERTEX
  8
72_ARTEK_AKFURNITURE_D2_CH_SEA
 10
1.14713
 20
0.39202
 30
0
  0
VERTEX
  8
72_ARTEK_AKFURNITURE_D2_CH_SEA
 10
1.13686
 20
0.392019
 30
0
  0
VERTEX
  8
72_ARTEK_AKFURNITURE_D2_CH_SEA
 10
1.12441
 20
0.392019
 30
0
  0
VERTEX
  8
72_ARTEK_AKFURNITURE_D2_CH_SEA
 10
1.1105
 20
0.392019
 30
0
  0
VERTEX
  8
72_ARTEK_AKFURNITURE_D2_CH_SEA
 10
1.09835
 20
0.392019
 30
0
  0
VERTEX
  8
72_ARTEK_AKFURNITURE_D2_CH_SEA
 10
1.08838
 20
0.39202
 30
0
  0
VERTEX
  8
72_ARTEK_AKFURNITURE_D2_CH_SEA
 10
1.07282
 20
0.392028
 30
0
  0
VERTEX
  8
72_ARTEK_AKFURNITURE_D2_CH_SEA
 10
1.05888
 20
0.392049
 30
0
  0
VERTEX
  8
72_ARTEK_AKFURNITURE_D2_CH_SEA
 10
1.04876
 20
0.392075
 30
0
  0
VERTEX
  8
72_ARTEK_AKFURNITURE_D2_CH_SEA
 10
1.03574
 20
0.392113
 30
0
  0
VERTEX
  8
72_ARTEK_AKFURNITURE_D2_CH_SEA
 10
0.97787
 20
0.392414
 30
0
  0
VERTEX
  8
72_ARTEK_AKFURNITURE_D2_CH_SEA
 10
0.949038
 20
0.392657
 30
0
  0
VERTEX
  8
72_ARTEK_AKFURNITURE_D2_CH_SEA
 10
0.936555
 20
0.392774
 30
0
  0
VERTEX
  8
72_ARTEK_AKFURNITURE_D2_CH_SEA
 10
0.926605
 20
0.392873
 30
0
  0
VERTEX
  8
72_ARTEK_AKFURNITURE_D2_CH_SEA
 10
0.912253
 20
0.393027
 30
0
  0
VERTEX
  8
72_ARTEK_AKFURNITURE_D2_CH_SEA
 10
0.900233
 20
0.393164
 30
0
  0
VERTEX
  8
72_ARTEK_AKFURNITURE_D2_CH_SEA
 10
0.888746
 20
0.393297
 30
0
  0
VERTEX
  8
72_ARTEK_AKFURNITURE_D2_CH_SEA
 10
0.87879
 20
0.393407
 30
0
  0
VERTEX
  8
72_ARTEK_AKFURNITURE_D2_CH_SEA
 10
0.867056
 20
0.393506
 30
0
  0
VERTEX
  8
72_ARTEK_AKFURNITURE_D2_CH_SEA
 10
0.862573
 20
0.393534
 30
0
  0
VERTEX
  8
72_ARTEK_AKFURNITURE_D2_CH_SEA
 10
0.859836
 20
0.393537
 30
0
  0
VERTEX
  8
72_ARTEK_AKFURNITURE_D2_CH_SEA
 10
0.853921
 20
0.393669
 30
0
  0
VERTEX
  8
72_ARTEK_AKFURNITURE_D2_CH_SEA
 10
0.847026
 20
0.394322
 30
0
  0
VERTEX
  8
72_ARTEK_AKFURNITURE_D2_CH_SEA
 10
0.842582
 20
0.395313
 30
0
  0
VERTEX
  8
72_ARTEK_AKFURNITURE_D2_CH_SEA
 10
0.839495
 20
0.396438
 30
0
  0
SEQEND
  0
POLYLINE
  8
72_ARTEK_AKFURNITURE_D2_CH_SEA
 66
     1
 70
     0
 10
0.0
 20
0.0
 30
0.0
  0
VERTEX
  8
72_ARTEK_AKFURNITURE_D2_CH_SEA
 10
0.277495
 20
0.396438
 30
0
  0
VERTEX
  8
72_ARTEK_AKFURNITURE_D2_CH_SEA
 10
0.276071
 20
0.397279
 30
0
  0
VERTEX
  8
72_ARTEK_AKFURNITURE_D2_CH_SEA
 10
0.275378
 20
0.3975
 30
0
  0
VERTEX
  8
72_ARTEK_AKFURNITURE_D2_CH_SEA
 10
0.275378
 20
0.396357
 30
0
  0
VERTEX
  8
72_ARTEK_AKFURNITURE_D2_CH_SEA
 10
0.275378
 20
0.391786
 30
0
  0
VERTEX
  8
72_ARTEK_AKFURNITURE_D2_CH_SEA
 10
0.275378
 20
0.382645
 30
0
  0
VERTEX
  8
72_ARTEK_AKFURNITURE_D2_CH_SEA
 10
0.275378
 20
0.364364
 30
0
  0
VERTEX
  8
72_ARTEK_AKFURNITURE_D2_CH_SEA
 10
0.275378
 20
0.3278
 30
0
  0
VERTEX
  8
72_ARTEK_AKFURNITURE_D2_CH_SEA
 10
0.275378
 20
0.254672
 30
0
  0
VERTEX
  8
72_ARTEK_AKFURNITURE_D2_CH_SEA
 10
0.275378
 20
0.108417
 30
0
  0
VERTEX
  8
72_ARTEK_AKFURNITURE_D2_CH_SEA
 10
0.275378
 20
-0.0378387
 30
0
  0
VERTEX
  8
72_ARTEK_AKFURNITURE_D2_CH_SEA
 10
0.275378
 20
-0.0744026
 30
0
  0
VERTEX
  8
72_ARTEK_AKFURNITURE_D2_CH_SEA
 10
0.275378
 20
-0.0926845
 30
0
  0
VERTEX
  8
72_ARTEK_AKFURNITURE_D2_CH_SEA
 10
0.276312
 20
-0.094256
 30
0
  0
VERTEX
  8
72_ARTEK_AKFURNITURE_D2_CH_SEA
 10
0.277945
 20
-0.0951478
 30
0
  0
VERTEX
  8
72_ARTEK_AKFURNITURE_D2_CH_SEA
 10
0.28307
 20
-0.0968323
 30
0
  0
VERTEX
  8
72_ARTEK_AKFURNITURE_D2_CH_SEA
 10
0.29098
 20
-0.0980488
 30
0
  0
VERTEX
  8
72_ARTEK_AKFURNITURE_D2_CH_SEA
 10
0.296888
 20
-0.0985384
 30
0
  0
VERTEX
  8
72_ARTEK_AKFURNITURE_D2_CH_SEA
 10
0.300235
 20
-0.0987411
 30
0
  0
VERTEX
  8
72_ARTEK_AKFURNITURE_D2_CH_SEA
 10
0.303232
 20
-0.0988269
 30
0
  0
VERTEX
  8
72_ARTEK_AKFURNITURE_D2_CH_SEA
 10
0.307423
 20
-0.0989036
 30
0
  0
VERTEX
  8
72_ARTEK_AKFURNITURE_D2_CH_SEA
 10
0.318879
 20
-0.0990546
 30
0
  0
VERTEX
  8
72_ARTEK_AKFURNITURE_D2_CH_SEA
 10
0.331686
 20
-0.0991136
 30
0
  0
VERTEX
  8
72_ARTEK_AKFURNITURE_D2_CH_SEA
 10
0.349161
 20
-0.0991564
 30
0
  0
VERTEX
  8
72_ARTEK_AKFURNITURE_D2_CH_SEA
 10
0.368635
 20
-0.0991671
 30
0
  0
VERTEX
  8
72_ARTEK_AKFURNITURE_D2_CH_SEA
 10
0.371095
 20
-0.0991675
 30
0
  0
VERTEX
  8
72_ARTEK_AKFURNITURE_D2_CH_SEA
 10
0.373622
 20
-0.0991685
 30
0
  0
VERTEX
  8
72_ARTEK_AKFURNITURE_D2_CH_SEA
 10
0.379273
 20
-0.0991711
 30
0
  0
VERTEX
  8
72_ARTEK_AKFURNITURE_D2_CH_SEA
 10
0.388061
 20
-0.0991753
 30
0
  0
VERTEX
  8
72_ARTEK_AKFURNITURE_D2_CH_SEA
 10
0.399026
 20
-0.0991809
 30
0
  0
VERTEX
  8
72_ARTEK_AKFURNITURE_D2_CH_SEA
 10
0.408729
 20
-0.0991862
 30
0
  0
VERTEX
  8
72_ARTEK_AKFURNITURE_D2_CH_SEA
 10
0.416863
 20
-0.0991913
 30
0
  0
VERTEX
  8
72_ARTEK_AKFURNITURE_D2_CH_SEA
 10
0.468051
 20
-0.0992305
 30
0
  0
VERTEX
  8
72_ARTEK_AKFURNITURE_D2_CH_SEA
 10
0.48077
 20
-0.0992374
 30
0
  0
VERTEX
  8
72_ARTEK_AKFURNITURE_D2_CH_SEA
 10
0.487431
 20
-0.0992397
 30
0
  0
VERTEX
  8
72_ARTEK_AKFURNITURE_D2_CH_SEA
 10
0.495845
 20
-0.0992421
 30
0
  0
VERTEX
  8
72_ARTEK_AKFURNITURE_D2_CH_SEA
 10
0.506204
 20
-0.0992446
 30
0
  0
VERTEX
  8
72_ARTEK_AKFURNITURE_D2_CH_SEA
 10
0.518428
 20
-0.0992472
 30
0
  0
VERTEX
  8
72_ARTEK_AKFURNITURE_D2_CH_SEA
 10
0.543864
 20
-0.099251
 30
0
  0
VERTEX
  8
72_ARTEK_AKFURNITURE_D2_CH_SEA
 10
0.594737
 20
-0.0992471
 30
0
  0
VERTEX
  8
72_ARTEK_AKFURNITURE_D2_CH_SEA
 10
0.606915
 20
-0.0992445
 30
0
  0
VERTEX
  8
72_ARTEK_AKFURNITURE_D2_CH_SEA
 10
0.617212
 20
-0.099242
 30
0
  0
VERTEX
  8
72_ARTEK_AKFURNITURE_D2_CH_SEA
 10
0.625563
 20
-0.0992397
 30
0
  0
VERTEX
  8
72_ARTEK_AKFURNITURE_D2_CH_SEA
 10
0.63219
 20
-0.0992373
 30
0
  0
VERTEX
  8
72_ARTEK_AKFURNITURE_D2_CH_SEA
 10
0.683066
 20
-0.0992008
 30
0
  0
VERTEX
  8
72_ARTEK_AKFURNITURE_D2_CH_SEA
 10
0.69613
 20
-0.0991911
 30
0
  0
VERTEX
  8
72_ARTEK_AKFURNITURE_D2_CH_SEA
 10
0.704315
 20
-0.0991861
 30
0
  0
VERTEX
  8
72_ARTEK_AKFURNITURE_D2_CH_SEA
 10
0.714068
 20
-0.0991807
 30
0
  0
VERTEX
  8
72_ARTEK_AKFURNITURE_D2_CH_SEA
 10
0.725026
 20
-0.0991752
 30
0
  0
VERTEX
  8
72_ARTEK_AKFURNITURE_D2_CH_SEA
 10
0.733713
 20
-0.099171
 30
0
  0
VERTEX
  8
72_ARTEK_AKFURNITURE_D2_CH_SEA
 10
0.739263
 20
-0.0991684
 30
0
  0
VERTEX
  8
72_ARTEK_AKFURNITURE_D2_CH_SEA
 10
0.7417
 20
-0.0991675
 30
0
  0
VERTEX
  8
72_ARTEK_AKFURNITURE_D2_CH_SEA
 10
0.761256
 20
-0.0991596
 30
0
  0
VERTEX
  8
72_ARTEK_AKFURNITURE_D2_CH_SEA
 10
0.779195
 20
-0.0991189
 30
0
  0
VERTEX
  8
72_ARTEK_AKFURNITURE_D2_CH_SEA
 10
0.792367
 20
-0.0990673
 30
0
  0
VERTEX
  8
72_ARTEK_AKFURNITURE_D2_CH_SEA
 10
0.804125
 20
-0.0989229
 30
0
  0
VERTEX
  8
72_ARTEK_AKFURNITURE_D2_CH_SEA
 10
0.8086
 20
-0.0988458
 30
0
  0
VERTEX
  8
72_ARTEK_AKFURNITURE_D2_CH_SEA
 10
0.811895
 20
-0.0987635
 30
0
  0
VERTEX
  8
72_ARTEK_AKFURNITURE_D2_CH_SEA
 10
0.818446
 20
-0.0983559
 30
0
  0
VERTEX
  8
72_ARTEK_AKFURNITURE_D2_CH_SEA
 10
0.82131
 20
-0.0980969
 30
0
  0
VERTEX
  8
72_ARTEK_AKFURNITURE_D2_CH_SEA
 10
0.825534
 20
-0.0976014
 30
0
  0
VERTEX
  8
72_ARTEK_AKFURNITURE_D2_CH_SEA
 10
0.832303
 20
-0.0961124
 30
0
  0
VERTEX
  8
72_ARTEK_AKFURNITURE_D2_CH_SEA
 10
0.836259
 20
-0.0943695
 30
0
  0
VERTEX
  8
72_ARTEK_AKFURNITURE_D2_CH_SEA
 10
0.837378
 20
-0.0929655
 30
0
  0
VERTEX
  8
72_ARTEK_AKFURNITURE_D2_CH_SEA
 10
0.837378
 20
-0.0906803
 30
0
  0
VERTEX
  8
72_ARTEK_AKFURNITURE_D2_CH_SEA
 10
0.837378
 20
-0.0723984
 30
0
  0
VERTEX
  8
72_ARTEK_AKFURNITURE_D2_CH_SEA
 10
0.837378
 20
0.220111
 30
0
  0
VERTEX
  8
72_ARTEK_AKFURNITURE_D2_CH_SEA
 10
0.837378
 20
0.366366
 30
0
  0
VERTEX
  8
72_ARTEK_AKFURNITURE_D2_CH_SEA
 10
0.837378
 20
0.384648
 30
0
  0
VERTEX
  8
72_ARTEK_AKFURNITURE_D2_CH_SEA
 10
0.837378
 20
0.393789
 30
0
  0
VERTEX
  8
72_ARTEK_AKFURNITURE_D2_CH_SEA
 10
0.837378
 20
0.396074
 30
0
  0
VERTEX
  8
72_ARTEK_AKFURNITURE_D2_CH_SEA
 10
0.837378
 20
0.397217
 30
0
  0
VERTEX
  8
72_ARTEK_AKFURNITURE_D2_CH_SEA
 10
0.836896
 20
0.397419
 30
0
  0
VERTEX
  8
72_ARTEK_AKFURNITURE_D2_CH_SEA
 10
0.834094
 20
0.395939
 30
0
  0
VERTEX
  8
72_ARTEK_AKFURNITURE_D2_CH_SEA
 10
0.83042
 20
0.394853
 30
0
  0
VERTEX
  8
72_ARTEK_AKFURNITURE_D2_CH_SEA
 10
0.825346
 20
0.394014
 30
0
  0
VERTEX
  8
72_ARTEK_AKFURNITURE_D2_CH_SEA
 10
0.817949
 20
0.393547
 30
0
  0
VERTEX
  8
72_ARTEK_AKFURNITURE_D2_CH_SEA
 10
0.812766
 20
0.393536
 30
0
  0
VERTEX
  8
72_ARTEK_AKFURNITURE_D2_CH_SEA
 10
0.80869
 20
0.393513
 30
0
  0
VERTEX
  8
72_ARTEK_AKFURNITURE_D2_CH_SEA
 10
0.803235
 20
0.39347
 30
0
  0
VERTEX
  8
72_ARTEK_AKFURNITURE_D2_CH_SEA
 10
0.797453
 20
0.393421
 30
0
  0
VERTEX
  8
72_ARTEK_AKFURNITURE_D2_CH_SEA
 10
0.788352
 20
0.393324
 30
0
  0
VERTEX
  8
72_ARTEK_AKFURNITURE_D2_CH_SEA
 10
0.765273
 20
0.393058
 30
0
  0
VERTEX
  8
72_ARTEK_AKFURNITURE_D2_CH_SEA
 10
0.75178
 20
0.39291
 30
0
  0
VERTEX
  8
72_ARTEK_AKFURNITURE_D2_CH_SEA
 10
0.743025
 20
0.392821
 30
0
  0
VERTEX
  8
72_ARTEK_AKFURNITURE_D2_CH_SEA
 10
0.731769
 20
0.392713
 30
0
  0
VERTEX
  8
72_ARTEK_AKFURNITURE_D2_CH_SEA
 10
0.674964
 20
0.392271
 30
0
  0
VERTEX
  8
72_ARTEK_AKFURNITURE_D2_CH_SEA
 10
0.646211
 20
0.392137
 30
0
  0
VERTEX
  8
72_ARTEK_AKFURNITURE_D2_CH_SEA
 10
0.632193
 20
0.392093
 30
0
  0
VERTEX
  8
72_ARTEK_AKFURNITURE_D2_CH_SEA
 10
0.620676
 20
0.392061
 30
0
  0
VERTEX
  8
72_ARTEK_AKFURNITURE_D2_CH_SEA
 10
0.612014
 20
0.392041
 30
0
  0
VERTEX
  8
72_ARTEK_AKFURNITURE_D2_CH_SEA
 10
0.605507
 20
0.392031
 30
0
  0
VERTEX
  8
72_ARTEK_AKFURNITURE_D2_CH_SEA
 10
0.590863
 20
0.392021
 30
0
  0
VERTEX
  8
72_ARTEK_AKFURNITURE_D2_CH_SEA
 10
0.582071
 20
0.39202
 30
0
  0
VERTEX
  8
72_ARTEK_AKFURNITURE_D2_CH_SEA
 10
0.571178
 20
0.392019
 30
0
  0
VERTEX
  8
72_ARTEK_AKFURNITURE_D2_CH_SEA
 10
0.544603
 20
0.392019
 30
0
  0
VERTEX
  8
72_ARTEK_AKFURNITURE_D2_CH_SEA
 10
0.53318
 20
0.392019
 30
0
  0
VERTEX
  8
72_ARTEK_AKFURNITURE_D2_CH_SEA
 10
0.523902
 20
0.392021
 30
0
  0
VERTEX
  8
72_ARTEK_AKFURNITURE_D2_CH_SEA
 10
0.508906
 20
0.392029
 30
0
  0
VERTEX
  8
72_ARTEK_AKFURNITURE_D2_CH_SEA
 10
0.502444
 20
0.392038
 30
0
  0
VERTEX
  8
72_ARTEK_AKFURNITURE_D2_CH_SEA
 10
0.494488
 20
0.392055
 30
0
  0
VERTEX
  8
72_ARTEK_AKFURNITURE_D2_CH_SEA
 10
0.483677
 20
0.392084
 30
0
  0
VERTEX
  8
72_ARTEK_AKFURNITURE_D2_CH_SEA
 10
0.470102
 20
0.392125
 30
0
  0
VERTEX
  8
72_ARTEK_AKFURNITURE_D2_CH_SEA
 10
0.412596
 20
0.392439
 30
0
  0
VERTEX
  8
72_ARTEK_AKFURNITURE_D2_CH_SEA
 10
0.384157
 20
0.392683
 30
0
  0
VERTEX
  8
72_ARTEK_AKFURNITURE_D2_CH_SEA
 10
0.372283
 20
0.392796
 30
0
  0
VERTEX
  8
72_ARTEK_AKFURNITURE_D2_CH_SEA
 10
0.362909
 20
0.39289
 30
0
  0
VERTEX
  8
72_ARTEK_AKFURNITURE_D2_CH_SEA
 10
0.349038
 20
0.39304
 30
0
  0
VERTEX
  8
72_ARTEK_AKFURNITURE_D2_CH_SEA
 10
0.337222
 20
0.393176
 30
0
  0
VERTEX
  8
72_ARTEK_AKFURNITURE_D2_CH_SEA
 10
0.325807
 20
0.393308
 30
0
  0
VERTEX
  8
72_ARTEK_AKFURNITURE_D2_CH_SEA
 10
0.316205
 20
0.393413
 30
0
  0
VERTEX
  8
72_ARTEK_AKFURNITURE_D2_CH_SEA
 10
0.304713
 20
0.393508
 30
0
  0
VERTEX
  8
72_ARTEK_AKFURNITURE_D2_CH_SEA
 10
0.300382
 20
0.393535
 30
0
  0
VERTEX
  8
72_ARTEK_AKFURNITURE_D2_CH_SEA
 10
0.297708
 20
0.393537
 30
0
  0
VERTEX
  8
72_ARTEK_AKFURNITURE_D2_CH_SEA
 10
0.291769
 20
0.393677
 30
0
  0
VERTEX
  8
72_ARTEK_AKFURNITURE_D2_CH_SEA
 10
0.284962
 20
0.394332
 30
0
  0
VERTEX
  8
72_ARTEK_AKFURNITURE_D2_CH_SEA
 10
0.280558
 20
0.39532
 30
0
  0
VERTEX
  8
72_ARTEK_AKFURNITURE_D2_CH_SEA
 10
0.277495
 20
0.396438
 30
0
  0
SEQEND
  0
POLYLINE
  8
72_ARTEK_AKFURNITURE_D2SNAP
 66
     1
 70
     0
 10
0.0
 20
0.0
 30
0.0
  0
VERTEX
  8
72_ARTEK_AKFURNITURE_D2SNAP
 10
0.568878
 20
0.255152
 30
0
  0
VERTEX
  8
72_ARTEK_AKFURNITURE_D2SNAP
 10
0.568637
 20
0.257591
 30
0
  0
VERTEX
  8
72_ARTEK_AKFURNITURE_D2SNAP
 10
0.567926
 20
0.259936
 30
0
  0
VERTEX
  8
72_ARTEK_AKFURNITURE_D2SNAP
 10
0.566771
 20
0.262097
 30
0
  0
VERTEX
  8
72_ARTEK_AKFURNITURE_D2SNAP
 10
0.565216
 20
0.263991
 30
0
  0
VERTEX
  8
72_ARTEK_AKFURNITURE_D2SNAP
 10
0.563322
 20
0.265545
 30
0
  0
VERTEX
  8
72_ARTEK_AKFURNITURE_D2SNAP
 10
0.561161
 20
0.266701
 30
0
  0
VERTEX
  8
72_ARTEK_AKFURNITURE_D2SNAP
 10
0.558816
 20
0.267412
 30
0
  0
VERTEX
  8
72_ARTEK_AKFURNITURE_D2SNAP
 10
0.556378
 20
0.267652
 30
0
  0
VERTEX
  8
72_ARTEK_AKFURNITURE_D2SNAP
 10
0.553939
 20
0.267412
 30
0
  0
VERTEX
  8
72_ARTEK_AKFURNITURE_D2SNAP
 10
0.551594
 20
0.266701
 30
0
  0
VERTEX
  8
72_ARTEK_AKFURNITURE_D2SNAP
 10
0.549433
 20
0.265545
 30
0
  0
VERTEX
  8
72_ARTEK_AKFURNITURE_D2SNAP
 10
0.547539
 20
0.263991
 30
0
  0
VERTEX
  8
72_ARTEK_AKFURNITURE_D2SNAP
 10
0.545984
 20
0.262097
 30
0
  0
VERTEX
  8
72_ARTEK_AKFURNITURE_D2SNAP
 10
0.544829
 20
0.259936
 30
0
  0
VERTEX
  8
72_ARTEK_AKFURNITURE_D2SNAP
 10
0.544118
 20
0.257591
 30
0
  0
VERTEX
  8
72_ARTEK_AKFURNITURE_D2SNAP
 10
0.543878
 20
0.255152
 30
0
  0
VERTEX
  8
72_ARTEK_AKFURNITURE_D2SNAP
 10
0.544118
 20
0.252713
 30
0
  0
VERTEX
  8
72_ARTEK_AKFURNITURE_D2SNAP
 10
0.544829
 20
0.250369
 30
0
  0
VERTEX
  8
72_ARTEK_AKFURNITURE_D2SNAP
 10
0.545984
 20
0.248207
 30
0
  0
VERTEX
  8
72_ARTEK_AKFURNITURE_D2SNAP
 10
0.547539
 20
0.246313
 30
0
  0
VERTEX
  8
72_ARTEK_AKFURNITURE_D2SNAP
 10
0.549433
 20
0.244759
 30
0
  0
VERTEX
  8
72_ARTEK_AKFURNITURE_D2SNAP
 10
0.551594
 20
0.243604
 30
0
  0
VERTEX
  8
72_ARTEK_AKFURNITURE_D2SNAP
 10
0.553939
 20
0.242892
 30
0
  0
VERTEX
  8
72_ARTEK_AKFURNITURE_D2SNAP
 10
0.556378
 20
0.242652
 30
0
  0
VERTEX
  8
72_ARTEK_AKFURNITURE_D2SNAP
 10
0.558816
 20
0.242892
 30
0
  0
VERTEX
  8
72_ARTEK_AKFURNITURE_D2SNAP
 10
0.561161
 20
0.243604
 30
0
  0
VERTEX
  8
72_ARTEK_AKFURNITURE_D2SNAP
 10
0.563322
 20
0.244759
 30
0
  0
VERTEX
  8
72_ARTEK_AKFURNITURE_D2SNAP
 10
0.565216
 20
0.246313
 30
0
  0
VERTEX
  8
72_ARTEK_AKFURNITURE_D2SNAP
 10
0.566771
 20
0.248207
 30
0
  0
VERTEX
  8
72_ARTEK_AKFURNITURE_D2SNAP
 10
0.567926
 20
0.250369
 30
0
  0
VERTEX
  8
72_ARTEK_AKFURNITURE_D2SNAP
 10
0.568637
 20
0.252713
 30
0
  0
VERTEX
  8
72_ARTEK_AKFURNITURE_D2SNAP
 10
0.568878
 20
0.255152
 30
0
  0
SEQEND
  0
POLYLINE
  8
72_ARTEK_AKFURNITURE_D2SNAP
 66
     1
 70
     0
 10
0.0
 20
0.0
 30
0.0
  0
VERTEX
  8
72_ARTEK_AKFURNITURE_D2SNAP
 10
0.5387
 20
0.237474
 30
0
  0
VERTEX
  8
72_ARTEK_AKFURNITURE_D2SNAP
 10
0.574055
 20
0.27283
 30
0
  0
SEQEND
  0
POLYLINE
  8
72_ARTEK_AKFURNITURE_D2SNAP
 66
     1
 70
     0
 10
0.0
 20
0.0
 30
0.0
  0
VERTEX
  8
72_ARTEK_AKFURNITURE_D2SNAP
 10
0.5387
 20
0.27283
 30
0
  0
VERTEX
  8
72_ARTEK_AKFURNITURE_D2SNAP
 10
0.574055
 20
0.237474
 30
0
  0
SEQEND
  0
ENDBLK
  8
0
  0
BLOCK
  8
0
  2
OB2D__000001
 70
    64
 10
0.0
 20
0.0
 30
0.0
  3
OB2D__000001
  0
ENDBLK
  8
0
  0
ENDSEC
  0
SECTION
  2
ENTITIES
  0
INSERT
  8
72OFGO2D01_GRAFIK
  2
OB2D__000000
 10
0.0
 20
0.0
 30
0.0
  0
INSERT
  8
72OFGO2D01_GRAFIK
  2
OB2D__000001
 10
0.0
 20
0.0
 30
0.0
  0
ENDSEC
  0
EOF
