  0
SECTION
  2
HEADER
  9
$ACADVER
  1
AC1009
  9
$INSBASE
 10
0.0
 20
0.0
 30
0.0
  9
$EXTMIN
 10
-5.03
 20
-5.03
 30
-1.03
  9
$EXTMAX
 10
5.03
 20
5
 30
5.03
  0
ENDSEC
  0
SECTION
  2
TABLES
  0
TABLE
  2
LTYPE
 70
     2
  0
LTYPE
  2
CONTINUOUS
 70
    64
  3
________
 72
    65
 73
     0
 40
0.0
  0
LTYPE
  2
DASHED
 70
     0
  3
__ __ __
 72
    65
 73
     2
 40
0.75
 49
0.5
 49
-0.25
  0
LTYPE
  2
DOT
 70
     0
  3
. . . .
 72
    65
 73
     2
 40
0.25
 49
0.0
 49
-0.25
  0
LTYPE
  2
DASHDOT
 70
     0
  3
_ . _ .
 72
    65
 73
     4
 40
1.0
 49
0.5
 49
-0.25
 49
-0.0
 49
-0.25
  0
LTYPE
  2
DASHDOUBLEDOT
 70
     0
  3
__..__..
 72
    65
 73
     6
 40
1.25
 49
0.5
 49
-0.25
 49
-0.0
 49
-0.25
 49
-0.0
 49
-0.25
  0
LTYPE
  2
DASHTRIPLEDOT
 70
     0
  3
__...__...__
 72
    65
 73
     8
 40
1.5
 49
0.5
 49
-0.25
 49
-0.0
 49
-0.25
 49
-0.0
 49
-0.25
 49
-0.0
 49
-0.25
  0
ENDTAB
  0
TABLE
  2
LAYER
 70
    14
  0
LAYER
  2
0
 70
    64
 62
     7
  6
CONTINUOUS
  0
LAYER
  2
CEILING
 70
    64
 62
     7
  6
CONTINUOUS
  0
LAYER
  2
FLOORBLOCK
 70
    64
 62
     7
  6
CONTINUOUS
  0
LAYER
  2
FLOORHATCHING
 70
    64
 62
     7
  6
CONTINUOUS
  0
LAYER
  2
SNAP
 70
    64
 62
     7
  6
CONTINUOUS
  0
LAYER
  2
ATTACHPOINT
 70
    64
 62
     7
  6
CONTINUOUS
  0
LAYER
  2
72_ARTEK_AKFURNITURE_D2_CH_FRA
 70
    64
 62
18
  6
CONTINUOUS
  0
LAYER
  2
72_ARTEK_AKFURNITURE_D2SNAP
 70
    64
 62
1
  6
CONTINUOUS
  0
LAYER
  2
72_ARTEK_AKFURNITURE_D2_CH_SEA
 70
    64
 62
18
  6
CONTINUOUS
  0
LAYER
  2
72_ARTEK_AKFURNITURE_D2_CH_ARM
 70
    64
 62
18
  6
CONTINUOUS
  0
LAYER
  2
72_ARTEK_AKFURNITURE_D2_CH_BAC
 70
    64
 62
18
  6
CONTINUOUS
  0
LAYER
  2
72_ARTEK_AKFURNITURE_D2_CH_FOO
 70
    64
 62
18
  6
CONTINUOUS
  0
LAYER
  2
72_ARTEK_AKFURNITURE_D2_CH_000
 70
    64
 62
8
  6
CONTINUOUS
  0
LAYER
  2
72OFGO2D01_GRAFIK
 70
    64
 62
     1
  6
CONTINUOUS
  0
ENDTAB
  0
TABLE
  2
STYLE
 70
     1
  0
STYLE
  2
STANDARD
 70
     0
 40
0.0
 41
1.0
 50
0.0
 71
     0
 42
0.2
  3
txt
  4

  0
ENDTAB
  0
TABLE
  2
APPID
 70
    64
  0
APPID
  2
ACAD
 70
    64
  0
APPID
  2
OFML_10
 70
    64
  0
ENDTAB
  0
ENDSEC
  0
SECTION
  2
BLOCKS
  0
BLOCK
  8
0
  2
OB2D__000000
 70
    64
 10
0.0
 20
0.0
 30
0.0
  3
OB2D__000000
  0
POLYLINE
  8
72_ARTEK_AKFURNITURE_D2SNAP
 66
     1
 70
     0
 10
0.0
 20
0.0
 30
0.0
  0
VERTEX
  8
72_ARTEK_AKFURNITURE_D2SNAP
 10
0.3155
 20
-0
 30
0
  0
VERTEX
  8
72_ARTEK_AKFURNITURE_D2SNAP
 10
0.31526
 20
0.00243863
 30
0
  0
VERTEX
  8
72_ARTEK_AKFURNITURE_D2SNAP
 10
0.314548
 20
0.00478354
 30
0
  0
VERTEX
  8
72_ARTEK_AKFURNITURE_D2SNAP
 10
0.313393
 20
0.00694463
 30
0
  0
VERTEX
  8
72_ARTEK_AKFURNITURE_D2SNAP
 10
0.311839
 20
0.00883883
 30
0
  0
VERTEX
  8
72_ARTEK_AKFURNITURE_D2SNAP
 10
0.309945
 20
0.0103934
 30
0
  0
VERTEX
  8
72_ARTEK_AKFURNITURE_D2SNAP
 10
0.307784
 20
0.0115485
 30
0
  0
VERTEX
  8
72_ARTEK_AKFURNITURE_D2SNAP
 10
0.305439
 20
0.0122598
 30
0
  0
VERTEX
  8
72_ARTEK_AKFURNITURE_D2SNAP
 10
0.303
 20
0.0125
 30
0
  0
VERTEX
  8
72_ARTEK_AKFURNITURE_D2SNAP
 10
0.300561
 20
0.0122598
 30
0
  0
VERTEX
  8
72_ARTEK_AKFURNITURE_D2SNAP
 10
0.298216
 20
0.0115485
 30
0
  0
VERTEX
  8
72_ARTEK_AKFURNITURE_D2SNAP
 10
0.296055
 20
0.0103934
 30
0
  0
VERTEX
  8
72_ARTEK_AKFURNITURE_D2SNAP
 10
0.294161
 20
0.00883883
 30
0
  0
VERTEX
  8
72_ARTEK_AKFURNITURE_D2SNAP
 10
0.292607
 20
0.00694463
 30
0
  0
VERTEX
  8
72_ARTEK_AKFURNITURE_D2SNAP
 10
0.291452
 20
0.00478354
 30
0
  0
VERTEX
  8
72_ARTEK_AKFURNITURE_D2SNAP
 10
0.29074
 20
0.00243863
 30
0
  0
VERTEX
  8
72_ARTEK_AKFURNITURE_D2SNAP
 10
0.2905
 20
3.15316e-018
 30
0
  0
VERTEX
  8
72_ARTEK_AKFURNITURE_D2SNAP
 10
0.29074
 20
-0.00243863
 30
0
  0
VERTEX
  8
72_ARTEK_AKFURNITURE_D2SNAP
 10
0.291452
 20
-0.00478354
 30
0
  0
VERTEX
  8
72_ARTEK_AKFURNITURE_D2SNAP
 10
0.292607
 20
-0.00694463
 30
0
  0
VERTEX
  8
72_ARTEK_AKFURNITURE_D2SNAP
 10
0.294161
 20
-0.00883883
 30
0
  0
VERTEX
  8
72_ARTEK_AKFURNITURE_D2SNAP
 10
0.296055
 20
-0.0103934
 30
0
  0
VERTEX
  8
72_ARTEK_AKFURNITURE_D2SNAP
 10
0.298216
 20
-0.0115485
 30
0
  0
VERTEX
  8
72_ARTEK_AKFURNITURE_D2SNAP
 10
0.300561
 20
-0.0122598
 30
0
  0
VERTEX
  8
72_ARTEK_AKFURNITURE_D2SNAP
 10
0.303
 20
-0.0125
 30
0
  0
VERTEX
  8
72_ARTEK_AKFURNITURE_D2SNAP
 10
0.305439
 20
-0.0122598
 30
0
  0
VERTEX
  8
72_ARTEK_AKFURNITURE_D2SNAP
 10
0.307784
 20
-0.0115485
 30
0
  0
VERTEX
  8
72_ARTEK_AKFURNITURE_D2SNAP
 10
0.309945
 20
-0.0103934
 30
0
  0
VERTEX
  8
72_ARTEK_AKFURNITURE_D2SNAP
 10
0.311839
 20
-0.00883883
 30
0
  0
VERTEX
  8
72_ARTEK_AKFURNITURE_D2SNAP
 10
0.313393
 20
-0.00694463
 30
0
  0
VERTEX
  8
72_ARTEK_AKFURNITURE_D2SNAP
 10
0.314548
 20
-0.00478354
 30
0
  0
VERTEX
  8
72_ARTEK_AKFURNITURE_D2SNAP
 10
0.31526
 20
-0.00243863
 30
0
  0
VERTEX
  8
72_ARTEK_AKFURNITURE_D2SNAP
 10
0.3155
 20
-0
 30
0
  0
SEQEND
  0
POLYLINE
  8
72_ARTEK_AKFURNITURE_D2SNAP
 66
     1
 70
     0
 10
0.0
 20
0.0
 30
0.0
  0
VERTEX
  8
72_ARTEK_AKFURNITURE_D2SNAP
 10
0.285322
 20
-0.0176777
 30
0
  0
VERTEX
  8
72_ARTEK_AKFURNITURE_D2SNAP
 10
0.320678
 20
0.0176777
 30
0
  0
SEQEND
  0
POLYLINE
  8
72_ARTEK_AKFURNITURE_D2SNAP
 66
     1
 70
     0
 10
0.0
 20
0.0
 30
0.0
  0
VERTEX
  8
72_ARTEK_AKFURNITURE_D2SNAP
 10
0.285322
 20
0.0176777
 30
0
  0
VERTEX
  8
72_ARTEK_AKFURNITURE_D2SNAP
 10
0.320678
 20
-0.0176777
 30
0
  0
SEQEND
  0
POLYLINE
  8
72_ARTEK_AKFURNITURE_D2_CH_BAC
 66
     1
 70
     0
 10
0.0
 20
0.0
 30
0.0
  0
VERTEX
  8
72_ARTEK_AKFURNITURE_D2_CH_BAC
 10
0.303
 20
0.242158
 30
0
  0
VERTEX
  8
72_ARTEK_AKFURNITURE_D2_CH_BAC
 10
0.312648
 20
0.242162
 30
0
  0
VERTEX
  8
72_ARTEK_AKFURNITURE_D2_CH_BAC
 10
0.324139
 20
0.242172
 30
0
  0
VERTEX
  8
72_ARTEK_AKFURNITURE_D2_CH_BAC
 10
0.337473
 20
0.242189
 30
0
  0
VERTEX
  8
72_ARTEK_AKFURNITURE_D2_CH_BAC
 10
0.352649
 20
0.242213
 30
0
  0
VERTEX
  8
72_ARTEK_AKFURNITURE_D2_CH_BAC
 10
0.421967
 20
0.242448
 30
0
  0
VERTEX
  8
72_ARTEK_AKFURNITURE_D2_CH_BAC
 10
0.456592
 20
0.242683
 30
0
  0
VERTEX
  8
72_ARTEK_AKFURNITURE_D2_CH_BAC
 10
0.471958
 20
0.242802
 30
0
  0
VERTEX
  8
72_ARTEK_AKFURNITURE_D2_CH_BAC
 10
0.485291
 20
0.242911
 30
0
  0
VERTEX
  8
72_ARTEK_AKFURNITURE_D2_CH_BAC
 10
0.496592
 20
0.243011
 30
0
  0
VERTEX
  8
72_ARTEK_AKFURNITURE_D2_CH_BAC
 10
0.50586
 20
0.243102
 30
0
  0
VERTEX
  8
72_ARTEK_AKFURNITURE_D2_CH_BAC
 10
0.520647
 20
0.243259
 30
0
  0
VERTEX
  8
72_ARTEK_AKFURNITURE_D2_CH_BAC
 10
0.533124
 20
0.243388
 30
0
  0
VERTEX
  8
72_ARTEK_AKFURNITURE_D2_CH_BAC
 10
0.543414
 20
0.24349
 30
0
  0
VERTEX
  8
72_ARTEK_AKFURNITURE_D2_CH_BAC
 10
0.552001
 20
0.243559
 30
0
  0
VERTEX
  8
72_ARTEK_AKFURNITURE_D2_CH_BAC
 10
0.558951
 20
0.243597
 30
0
  0
VERTEX
  8
72_ARTEK_AKFURNITURE_D2_CH_BAC
 10
0.563819
 20
0.243641
 30
0
  0
VERTEX
  8
72_ARTEK_AKFURNITURE_D2_CH_BAC
 10
0.566361
 20
0.243713
 30
0
  0
VERTEX
  8
72_ARTEK_AKFURNITURE_D2_CH_BAC
 10
0.568198
 20
0.243896
 30
0
  0
VERTEX
  8
72_ARTEK_AKFURNITURE_D2_CH_BAC
 10
0.57484
 20
0.244854
 30
0
  0
VERTEX
  8
72_ARTEK_AKFURNITURE_D2_CH_BAC
 10
0.579938
 20
0.24628
 30
0
  0
VERTEX
  8
72_ARTEK_AKFURNITURE_D2_CH_BAC
 10
0.585042
 20
0.249517
 30
0
  0
VERTEX
  8
72_ARTEK_AKFURNITURE_D2_CH_BAC
 10
0.586225
 20
0.251448
 30
0
  0
VERTEX
  8
72_ARTEK_AKFURNITURE_D2_CH_BAC
 10
0.586948
 20
0.254566
 30
0
  0
VERTEX
  8
72_ARTEK_AKFURNITURE_D2_CH_BAC
 10
0.587
 20
0.304785
 30
0
  0
VERTEX
  8
72_ARTEK_AKFURNITURE_D2_CH_BAC
 10
0.587
 20
0.329912
 30
0
  0
VERTEX
  8
72_ARTEK_AKFURNITURE_D2_CH_BAC
 10
0.586442
 20
0.342483
 30
0
  0
VERTEX
  8
72_ARTEK_AKFURNITURE_D2_CH_BAC
 10
0.585919
 20
0.34406
 30
0
  0
VERTEX
  8
72_ARTEK_AKFURNITURE_D2_CH_BAC
 10
0.585918
 20
0.344607
 30
0
  0
VERTEX
  8
72_ARTEK_AKFURNITURE_D2_CH_BAC
 10
0.585592
 20
0.346093
 30
0
  0
VERTEX
  8
72_ARTEK_AKFURNITURE_D2_CH_BAC
 10
0.581545
 20
0.349408
 30
0
  0
VERTEX
  8
72_ARTEK_AKFURNITURE_D2_CH_BAC
 10
0.577809
 20
0.350852
 30
0
  0
VERTEX
  8
72_ARTEK_AKFURNITURE_D2_CH_BAC
 10
0.573522
 20
0.35187
 30
0
  0
VERTEX
  8
72_ARTEK_AKFURNITURE_D2_CH_BAC
 10
0.570265
 20
0.352357
 30
0
  0
VERTEX
  8
72_ARTEK_AKFURNITURE_D2_CH_BAC
 10
0.566931
 20
0.352739
 30
0
  0
VERTEX
  8
72_ARTEK_AKFURNITURE_D2_CH_BAC
 10
0.562136
 20
0.352889
 30
0
  0
VERTEX
  8
72_ARTEK_AKFURNITURE_D2_CH_BAC
 10
0.559122
 20
0.352891
 30
0
  0
VERTEX
  8
72_ARTEK_AKFURNITURE_D2_CH_BAC
 10
0.554081
 20
0.352923
 30
0
  0
VERTEX
  8
72_ARTEK_AKFURNITURE_D2_CH_BAC
 10
0.547791
 20
0.352973
 30
0
  0
VERTEX
  8
72_ARTEK_AKFURNITURE_D2_CH_BAC
 10
0.544428
 20
0.353001
 30
0
  0
VERTEX
  8
72_ARTEK_AKFURNITURE_D2_CH_BAC
 10
0.539839
 20
0.353047
 30
0
  0
VERTEX
  8
72_ARTEK_AKFURNITURE_D2_CH_BAC
 10
0.533895
 20
0.353113
 30
0
  0
VERTEX
  8
72_ARTEK_AKFURNITURE_D2_CH_BAC
 10
0.525526
 20
0.353207
 30
0
  0
VERTEX
  8
72_ARTEK_AKFURNITURE_D2_CH_BAC
 10
0.513875
 20
0.353337
 30
0
  0
VERTEX
  8
72_ARTEK_AKFURNITURE_D2_CH_BAC
 10
0.499335
 20
0.353495
 30
0
  0
VERTEX
  8
72_ARTEK_AKFURNITURE_D2_CH_BAC
 10
0.467696
 20
0.353804
 30
0
  0
VERTEX
  8
72_ARTEK_AKFURNITURE_D2_CH_BAC
 10
0.434757
 20
0.354065
 30
0
  0
VERTEX
  8
72_ARTEK_AKFURNITURE_D2_CH_BAC
 10
0.303
 20
0.354404
 30
0
  0
VERTEX
  8
72_ARTEK_AKFURNITURE_D2_CH_BAC
 10
0.171243
 20
0.354065
 30
0
  0
VERTEX
  8
72_ARTEK_AKFURNITURE_D2_CH_BAC
 10
0.138304
 20
0.353804
 30
0
  0
VERTEX
  8
72_ARTEK_AKFURNITURE_D2_CH_BAC
 10
0.106665
 20
0.353495
 30
0
  0
VERTEX
  8
72_ARTEK_AKFURNITURE_D2_CH_BAC
 10
0.0921245
 20
0.353337
 30
0
  0
VERTEX
  8
72_ARTEK_AKFURNITURE_D2_CH_BAC
 10
0.0804741
 20
0.353207
 30
0
  0
VERTEX
  8
72_ARTEK_AKFURNITURE_D2_CH_BAC
 10
0.0721048
 20
0.353113
 30
0
  0
VERTEX
  8
72_ARTEK_AKFURNITURE_D2_CH_BAC
 10
0.0661609
 20
0.353047
 30
0
  0
VERTEX
  8
72_ARTEK_AKFURNITURE_D2_CH_BAC
 10
0.0615722
 20
0.353001
 30
0
  0
VERTEX
  8
72_ARTEK_AKFURNITURE_D2_CH_BAC
 10
0.0582092
 20
0.352973
 30
0
  0
VERTEX
  8
72_ARTEK_AKFURNITURE_D2_CH_BAC
 10
0.0519189
 20
0.352923
 30
0
  0
VERTEX
  8
72_ARTEK_AKFURNITURE_D2_CH_BAC
 10
0.046878
 20
0.352891
 30
0
  0
VERTEX
  8
72_ARTEK_AKFURNITURE_D2_CH_BAC
 10
0.0438643
 20
0.352889
 30
0
  0
VERTEX
  8
72_ARTEK_AKFURNITURE_D2_CH_BAC
 10
0.0390691
 20
0.352739
 30
0
  0
VERTEX
  8
72_ARTEK_AKFURNITURE_D2_CH_BAC
 10
0.0357354
 20
0.352357
 30
0
  0
VERTEX
  8
72_ARTEK_AKFURNITURE_D2_CH_BAC
 10
0.0324785
 20
0.35187
 30
0
  0
VERTEX
  8
72_ARTEK_AKFURNITURE_D2_CH_BAC
 10
0.0281909
 20
0.350852
 30
0
  0
VERTEX
  8
72_ARTEK_AKFURNITURE_D2_CH_BAC
 10
0.0244547
 20
0.349408
 30
0
  0
VERTEX
  8
72_ARTEK_AKFURNITURE_D2_CH_BAC
 10
0.0204082
 20
0.346093
 30
0
  0
VERTEX
  8
72_ARTEK_AKFURNITURE_D2_CH_BAC
 10
0.0200816
 20
0.344607
 30
0
  0
VERTEX
  8
72_ARTEK_AKFURNITURE_D2_CH_BAC
 10
0.0200806
 20
0.34406
 30
0
  0
VERTEX
  8
72_ARTEK_AKFURNITURE_D2_CH_BAC
 10
0.0195584
 20
0.342483
 30
0
  0
VERTEX
  8
72_ARTEK_AKFURNITURE_D2_CH_BAC
 10
0.019
 20
0.329912
 30
0
  0
VERTEX
  8
72_ARTEK_AKFURNITURE_D2_CH_BAC
 10
0.019
 20
0.304785
 30
0
  0
VERTEX
  8
72_ARTEK_AKFURNITURE_D2_CH_BAC
 10
0.0190519
 20
0.254566
 30
0
  0
VERTEX
  8
72_ARTEK_AKFURNITURE_D2_CH_BAC
 10
0.0197749
 20
0.251448
 30
0
  0
VERTEX
  8
72_ARTEK_AKFURNITURE_D2_CH_BAC
 10
0.0209575
 20
0.249517
 30
0
  0
VERTEX
  8
72_ARTEK_AKFURNITURE_D2_CH_BAC
 10
0.026062
 20
0.24628
 30
0
  0
VERTEX
  8
72_ARTEK_AKFURNITURE_D2_CH_BAC
 10
0.0311597
 20
0.244854
 30
0
  0
VERTEX
  8
72_ARTEK_AKFURNITURE_D2_CH_BAC
 10
0.0378021
 20
0.243896
 30
0
  0
VERTEX
  8
72_ARTEK_AKFURNITURE_D2_CH_BAC
 10
0.0396388
 20
0.243713
 30
0
  0
VERTEX
  8
72_ARTEK_AKFURNITURE_D2_CH_BAC
 10
0.0421807
 20
0.243641
 30
0
  0
VERTEX
  8
72_ARTEK_AKFURNITURE_D2_CH_BAC
 10
0.0470495
 20
0.243597
 30
0
  0
VERTEX
  8
72_ARTEK_AKFURNITURE_D2_CH_BAC
 10
0.0539987
 20
0.243559
 30
0
  0
VERTEX
  8
72_ARTEK_AKFURNITURE_D2_CH_BAC
 10
0.0625863
 20
0.24349
 30
0
  0
VERTEX
  8
72_ARTEK_AKFURNITURE_D2_CH_BAC
 10
0.0728759
 20
0.243388
 30
0
  0
VERTEX
  8
72_ARTEK_AKFURNITURE_D2_CH_BAC
 10
0.085353
 20
0.243259
 30
0
  0
VERTEX
  8
72_ARTEK_AKFURNITURE_D2_CH_BAC
 10
0.10014
 20
0.243102
 30
0
  0
VERTEX
  8
72_ARTEK_AKFURNITURE_D2_CH_BAC
 10
0.109408
 20
0.243011
 30
0
  0
VERTEX
  8
72_ARTEK_AKFURNITURE_D2_CH_BAC
 10
0.120709
 20
0.242911
 30
0
  0
VERTEX
  8
72_ARTEK_AKFURNITURE_D2_CH_BAC
 10
0.134042
 20
0.242802
 30
0
  0
VERTEX
  8
72_ARTEK_AKFURNITURE_D2_CH_BAC
 10
0.149408
 20
0.242683
 30
0
  0
VERTEX
  8
72_ARTEK_AKFURNITURE_D2_CH_BAC
 10
0.184033
 20
0.242448
 30
0
  0
VERTEX
  8
72_ARTEK_AKFURNITURE_D2_CH_BAC
 10
0.253351
 20
0.242213
 30
0
  0
VERTEX
  8
72_ARTEK_AKFURNITURE_D2_CH_BAC
 10
0.268527
 20
0.242189
 30
0
  0
VERTEX
  8
72_ARTEK_AKFURNITURE_D2_CH_BAC
 10
0.281861
 20
0.242172
 30
0
  0
VERTEX
  8
72_ARTEK_AKFURNITURE_D2_CH_BAC
 10
0.293352
 20
0.242162
 30
0
  0
VERTEX
  8
72_ARTEK_AKFURNITURE_D2_CH_BAC
 10
0.303
 20
0.242158
 30
0
  0
SEQEND
  0
POLYLINE
  8
72_ARTEK_AKFURNITURE_D2_CH_BAC
 66
     1
 70
     0
 10
0.0
 20
0.0
 30
0.0
  0
VERTEX
  8
72_ARTEK_AKFURNITURE_D2_CH_BAC
 10
0.0202222
 20
0.145033
 30
0
  0
VERTEX
  8
72_ARTEK_AKFURNITURE_D2_CH_BAC
 10
0.0208795
 20
0.143821
 30
0
  0
VERTEX
  8
72_ARTEK_AKFURNITURE_D2_CH_BAC
 10
0.0236606
 20
0.14153
 30
0
  0
VERTEX
  8
72_ARTEK_AKFURNITURE_D2_CH_BAC
 10
0.0263234
 20
0.140427
 30
0
  0
VERTEX
  8
72_ARTEK_AKFURNITURE_D2_CH_BAC
 10
0.0301596
 20
0.139436
 30
0
  0
VERTEX
  8
72_ARTEK_AKFURNITURE_D2_CH_BAC
 10
0.0355086
 20
0.138726
 30
0
  0
VERTEX
  8
72_ARTEK_AKFURNITURE_D2_CH_BAC
 10
0.0422602
 20
0.138385
 30
0
  0
VERTEX
  8
72_ARTEK_AKFURNITURE_D2_CH_BAC
 10
0.0472303
 20
0.138382
 30
0
  0
VERTEX
  8
72_ARTEK_AKFURNITURE_D2_CH_BAC
 10
0.0565635
 20
0.138314
 30
0
  0
VERTEX
  8
72_ARTEK_AKFURNITURE_D2_CH_BAC
 10
0.0620629
 20
0.138268
 30
0
  0
VERTEX
  8
72_ARTEK_AKFURNITURE_D2_CH_BAC
 10
0.0706086
 20
0.138176
 30
0
  0
VERTEX
  8
72_ARTEK_AKFURNITURE_D2_CH_BAC
 10
0.0922393
 20
0.137927
 30
0
  0
VERTEX
  8
72_ARTEK_AKFURNITURE_D2_CH_BAC
 10
0.104596
 20
0.13779
 30
0
  0
VERTEX
  8
72_ARTEK_AKFURNITURE_D2_CH_BAC
 10
0.111883
 20
0.137714
 30
0
  0
VERTEX
  8
72_ARTEK_AKFURNITURE_D2_CH_BAC
 10
0.121309
 20
0.137621
 30
0
  0
VERTEX
  8
72_ARTEK_AKFURNITURE_D2_CH_BAC
 10
0.132957
 20
0.137511
 30
0
  0
VERTEX
  8
72_ARTEK_AKFURNITURE_D2_CH_BAC
 10
0.14637
 20
0.13739
 30
0
  0
VERTEX
  8
72_ARTEK_AKFURNITURE_D2_CH_BAC
 10
0.173481
 20
0.137186
 30
0
  0
VERTEX
  8
72_ARTEK_AKFURNITURE_D2_CH_BAC
 10
0.227328
 20
0.13694
 30
0
  0
VERTEX
  8
72_ARTEK_AKFURNITURE_D2_CH_BAC
 10
0.238234
 20
0.13691
 30
0
  0
VERTEX
  8
72_ARTEK_AKFURNITURE_D2_CH_BAC
 10
0.246603
 20
0.13689
 30
0
  0
VERTEX
  8
72_ARTEK_AKFURNITURE_D2_CH_BAC
 10
0.259263
 20
0.136874
 30
0
  0
VERTEX
  8
72_ARTEK_AKFURNITURE_D2_CH_BAC
 10
0.274169
 20
0.136868
 30
0
  0
VERTEX
  8
72_ARTEK_AKFURNITURE_D2_CH_BAC
 10
0.283711
 20
0.136867
 30
0
  0
VERTEX
  8
72_ARTEK_AKFURNITURE_D2_CH_BAC
 10
0.295161
 20
0.136867
 30
0
  0
VERTEX
  8
72_ARTEK_AKFURNITURE_D2_CH_BAC
 10
0.308219
 20
0.136866
 30
0
  0
VERTEX
  8
72_ARTEK_AKFURNITURE_D2_CH_BAC
 10
0.320065
 20
0.136867
 30
0
  0
VERTEX
  8
72_ARTEK_AKFURNITURE_D2_CH_BAC
 10
0.330004
 20
0.136868
 30
0
  0
VERTEX
  8
72_ARTEK_AKFURNITURE_D2_CH_BAC
 10
0.338112
 20
0.136869
 30
0
  0
VERTEX
  8
72_ARTEK_AKFURNITURE_D2_CH_BAC
 10
0.351892
 20
0.136879
 30
0
  0
VERTEX
  8
72_ARTEK_AKFURNITURE_D2_CH_BAC
 10
0.357976
 20
0.136888
 30
0
  0
VERTEX
  8
72_ARTEK_AKFURNITURE_D2_CH_BAC
 10
0.365817
 20
0.136905
 30
0
  0
VERTEX
  8
72_ARTEK_AKFURNITURE_D2_CH_BAC
 10
0.376195
 20
0.136933
 30
0
  0
VERTEX
  8
72_ARTEK_AKFURNITURE_D2_CH_BAC
 10
0.389034
 20
0.136972
 30
0
  0
VERTEX
  8
72_ARTEK_AKFURNITURE_D2_CH_BAC
 10
0.416145
 20
0.137089
 30
0
  0
VERTEX
  8
72_ARTEK_AKFURNITURE_D2_CH_BAC
 10
0.470342
 20
0.137486
 30
0
  0
VERTEX
  8
72_ARTEK_AKFURNITURE_D2_CH_BAC
 10
0.482452
 20
0.1376
 30
0
  0
VERTEX
  8
72_ARTEK_AKFURNITURE_D2_CH_BAC
 10
0.49234
 20
0.137696
 30
0
  0
VERTEX
  8
72_ARTEK_AKFURNITURE_D2_CH_BAC
 10
0.500014
 20
0.137775
 30
0
  0
VERTEX
  8
72_ARTEK_AKFURNITURE_D2_CH_BAC
 10
0.506517
 20
0.137846
 30
0
  0
VERTEX
  8
72_ARTEK_AKFURNITURE_D2_CH_BAC
 10
0.528911
 20
0.138102
 30
0
  0
VERTEX
  8
72_ARTEK_AKFURNITURE_D2_CH_BAC
 10
0.539214
 20
0.138219
 30
0
  0
VERTEX
  8
72_ARTEK_AKFURNITURE_D2_CH_BAC
 10
0.546309
 20
0.138289
 30
0
  0
VERTEX
  8
72_ARTEK_AKFURNITURE_D2_CH_BAC
 10
0.556477
 20
0.138369
 30
0
  0
VERTEX
  8
72_ARTEK_AKFURNITURE_D2_CH_BAC
 10
0.5623
 20
0.138385
 30
0
  0
VERTEX
  8
72_ARTEK_AKFURNITURE_D2_CH_BAC
 10
0.568161
 20
0.138559
 30
0
  0
VERTEX
  8
72_ARTEK_AKFURNITURE_D2_CH_BAC
 10
0.574467
 20
0.139188
 30
0
  0
VERTEX
  8
72_ARTEK_AKFURNITURE_D2_CH_BAC
 10
0.578642
 20
0.140117
 30
0
  0
VERTEX
  8
72_ARTEK_AKFURNITURE_D2_CH_BAC
 10
0.581631
 20
0.141166
 30
0
  0
VERTEX
  8
72_ARTEK_AKFURNITURE_D2_CH_BAC
 10
0.584456
 20
0.143041
 30
0
  0
VERTEX
  8
72_ARTEK_AKFURNITURE_D2_CH_BAC
 10
0.585727
 20
0.14492
 30
0
  0
VERTEX
  8
72_ARTEK_AKFURNITURE_D2_CH_BAC
 10
0.586338
 20
0.14722
 30
0
  0
VERTEX
  8
72_ARTEK_AKFURNITURE_D2_CH_BAC
 10
0.587
 20
0.15234
 30
0
  0
VERTEX
  8
72_ARTEK_AKFURNITURE_D2_CH_BAC
 10
0.587
 20
0.15915
 30
0
  0
VERTEX
  8
72_ARTEK_AKFURNITURE_D2_CH_BAC
 10
0.587
 20
0.172769
 30
0
  0
VERTEX
  8
72_ARTEK_AKFURNITURE_D2_CH_BAC
 10
0.587
 20
0.200006
 30
0
  0
VERTEX
  8
72_ARTEK_AKFURNITURE_D2_CH_BAC
 10
0.587
 20
0.254481
 30
0
  0
VERTEX
  8
72_ARTEK_AKFURNITURE_D2_CH_BAC
 10
0.585113
 20
0.2496
 30
0
  0
VERTEX
  8
72_ARTEK_AKFURNITURE_D2_CH_BAC
 10
0.582805
 20
0.247723
 30
0
  0
VERTEX
  8
72_ARTEK_AKFURNITURE_D2_CH_BAC
 10
0.57941
 20
0.246095
 30
0
  0
VERTEX
  8
72_ARTEK_AKFURNITURE_D2_CH_BAC
 10
0.573583
 20
0.244598
 30
0
  0
VERTEX
  8
72_ARTEK_AKFURNITURE_D2_CH_BAC
 10
0.565764
 20
0.243686
 30
0
  0
VERTEX
  8
72_ARTEK_AKFURNITURE_D2_CH_BAC
 10
0.562052
 20
0.243619
 30
0
  0
VERTEX
  8
72_ARTEK_AKFURNITURE_D2_CH_BAC
 10
0.555648
 20
0.243582
 30
0
  0
VERTEX
  8
72_ARTEK_AKFURNITURE_D2_CH_BAC
 10
0.547139
 20
0.243522
 30
0
  0
VERTEX
  8
72_ARTEK_AKFURNITURE_D2_CH_BAC
 10
0.536708
 20
0.243425
 30
0
  0
VERTEX
  8
72_ARTEK_AKFURNITURE_D2_CH_BAC
 10
0.523886
 20
0.243293
 30
0
  0
VERTEX
  8
72_ARTEK_AKFURNITURE_D2_CH_BAC
 10
0.508387
 20
0.243129
 30
0
  0
VERTEX
  8
72_ARTEK_AKFURNITURE_D2_CH_BAC
 10
0.498939
 20
0.243033
 30
0
  0
VERTEX
  8
72_ARTEK_AKFURNITURE_D2_CH_BAC
 10
0.48711
 20
0.242927
 30
0
  0
VERTEX
  8
72_ARTEK_AKFURNITURE_D2_CH_BAC
 10
0.472894
 20
0.242809
 30
0
  0
VERTEX
  8
72_ARTEK_AKFURNITURE_D2_CH_BAC
 10
0.456289
 20
0.24268
 30
0
  0
VERTEX
  8
72_ARTEK_AKFURNITURE_D2_CH_BAC
 10
0.38087
 20
0.242272
 30
0
  0
VERTEX
  8
72_ARTEK_AKFURNITURE_D2_CH_BAC
 10
0.361978
 20
0.242229
 30
0
  0
VERTEX
  8
72_ARTEK_AKFURNITURE_D2_CH_BAC
 10
0.344489
 20
0.242199
 30
0
  0
VERTEX
  8
72_ARTEK_AKFURNITURE_D2_CH_BAC
 10
0.329166
 20
0.242178
 30
0
  0
VERTEX
  8
72_ARTEK_AKFURNITURE_D2_CH_BAC
 10
0.316007
 20
0.242164
 30
0
  0
VERTEX
  8
72_ARTEK_AKFURNITURE_D2_CH_BAC
 10
0.294828
 20
0.242161
 30
0
  0
VERTEX
  8
72_ARTEK_AKFURNITURE_D2_CH_BAC
 10
0.28257
 20
0.242171
 30
0
  0
VERTEX
  8
72_ARTEK_AKFURNITURE_D2_CH_BAC
 10
0.268147
 20
0.242189
 30
0
  0
VERTEX
  8
72_ARTEK_AKFURNITURE_D2_CH_BAC
 10
0.251558
 20
0.242216
 30
0
  0
VERTEX
  8
72_ARTEK_AKFURNITURE_D2_CH_BAC
 10
0.232998
 20
0.242251
 30
0
  0
VERTEX
  8
72_ARTEK_AKFURNITURE_D2_CH_BAC
 10
0.195157
 20
0.24239
 30
0
  0
VERTEX
  8
72_ARTEK_AKFURNITURE_D2_CH_BAC
 10
0.15732
 20
0.242623
 30
0
  0
VERTEX
  8
72_ARTEK_AKFURNITURE_D2_CH_BAC
 10
0.139722
 20
0.242757
 30
0
  0
VERTEX
  8
72_ARTEK_AKFURNITURE_D2_CH_BAC
 10
0.124512
 20
0.242879
 30
0
  0
VERTEX
  8
72_ARTEK_AKFURNITURE_D2_CH_BAC
 10
0.11169
 20
0.24299
 30
0
  0
VERTEX
  8
72_ARTEK_AKFURNITURE_D2_CH_BAC
 10
0.101257
 20
0.24309
 30
0
  0
VERTEX
  8
72_ARTEK_AKFURNITURE_D2_CH_BAC
 10
0.0851166
 20
0.243261
 30
0
  0
VERTEX
  8
72_ARTEK_AKFURNITURE_D2_CH_BAC
 10
0.0717379
 20
0.2434
 30
0
  0
VERTEX
  8
72_ARTEK_AKFURNITURE_D2_CH_BAC
 10
0.060871
 20
0.243505
 30
0
  0
VERTEX
  8
72_ARTEK_AKFURNITURE_D2_CH_BAC
 10
0.0519636
 20
0.243572
 30
0
  0
VERTEX
  8
72_ARTEK_AKFURNITURE_D2_CH_BAC
 10
0.0450628
 20
0.243609
 30
0
  0
VERTEX
  8
72_ARTEK_AKFURNITURE_D2_CH_BAC
 10
0.0407825
 20
0.243669
 30
0
  0
VERTEX
  8
72_ARTEK_AKFURNITURE_D2_CH_BAC
 10
0.0391225
 20
0.24376
 30
0
  0
VERTEX
  8
72_ARTEK_AKFURNITURE_D2_CH_BAC
 10
0.0371865
 20
0.243959
 30
0
  0
VERTEX
  8
72_ARTEK_AKFURNITURE_D2_CH_BAC
 10
0.0334913
 20
0.244435
 30
0
  0
VERTEX
  8
72_ARTEK_AKFURNITURE_D2_CH_BAC
 10
0.0273549
 20
0.245849
 30
0
  0
VERTEX
  8
72_ARTEK_AKFURNITURE_D2_CH_BAC
 10
0.023594
 20
0.247469
 30
0
  0
VERTEX
  8
72_ARTEK_AKFURNITURE_D2_CH_BAC
 10
0.0198066
 20
0.251386
 30
0
  0
VERTEX
  8
72_ARTEK_AKFURNITURE_D2_CH_BAC
 10
0.0193651
 20
0.252551
 30
0
  0
VERTEX
  8
72_ARTEK_AKFURNITURE_D2_CH_BAC
 10
0.0190268
 20
0.254845
 30
0
  0
VERTEX
  8
72_ARTEK_AKFURNITURE_D2_CH_BAC
 10
0.019
 20
0.2487
 30
0
  0
VERTEX
  8
72_ARTEK_AKFURNITURE_D2_CH_BAC
 10
0.019
 20
0.194225
 30
0
  0
VERTEX
  8
72_ARTEK_AKFURNITURE_D2_CH_BAC
 10
0.019
 20
0.166987
 30
0
  0
VERTEX
  8
72_ARTEK_AKFURNITURE_D2_CH_BAC
 10
0.019
 20
0.153369
 30
0
  0
VERTEX
  8
72_ARTEK_AKFURNITURE_D2_CH_BAC
 10
0.0195505
 20
0.147771
 30
0
  0
VERTEX
  8
72_ARTEK_AKFURNITURE_D2_CH_BAC
 10
0.0202222
 20
0.145033
 30
0
  0
SEQEND
  0
POLYLINE
  8
72_ARTEK_AKFURNITURE_D2SNAP
 66
     1
 70
     0
 10
0.0
 20
0.0
 30
0.0
  0
VERTEX
  8
72_ARTEK_AKFURNITURE_D2SNAP
 10
0.3155
 20
-0
 30
0
  0
VERTEX
  8
72_ARTEK_AKFURNITURE_D2SNAP
 10
0.31526
 20
0.00243863
 30
0
  0
VERTEX
  8
72_ARTEK_AKFURNITURE_D2SNAP
 10
0.314548
 20
0.00478354
 30
0
  0
VERTEX
  8
72_ARTEK_AKFURNITURE_D2SNAP
 10
0.313393
 20
0.00694463
 30
0
  0
VERTEX
  8
72_ARTEK_AKFURNITURE_D2SNAP
 10
0.311839
 20
0.00883883
 30
0
  0
VERTEX
  8
72_ARTEK_AKFURNITURE_D2SNAP
 10
0.309945
 20
0.0103934
 30
0
  0
VERTEX
  8
72_ARTEK_AKFURNITURE_D2SNAP
 10
0.307784
 20
0.0115485
 30
0
  0
VERTEX
  8
72_ARTEK_AKFURNITURE_D2SNAP
 10
0.305439
 20
0.0122598
 30
0
  0
VERTEX
  8
72_ARTEK_AKFURNITURE_D2SNAP
 10
0.303
 20
0.0125
 30
0
  0
VERTEX
  8
72_ARTEK_AKFURNITURE_D2SNAP
 10
0.300561
 20
0.0122598
 30
0
  0
VERTEX
  8
72_ARTEK_AKFURNITURE_D2SNAP
 10
0.298216
 20
0.0115485
 30
0
  0
VERTEX
  8
72_ARTEK_AKFURNITURE_D2SNAP
 10
0.296055
 20
0.0103934
 30
0
  0
VERTEX
  8
72_ARTEK_AKFURNITURE_D2SNAP
 10
0.294161
 20
0.00883883
 30
0
  0
VERTEX
  8
72_ARTEK_AKFURNITURE_D2SNAP
 10
0.292607
 20
0.00694463
 30
0
  0
VERTEX
  8
72_ARTEK_AKFURNITURE_D2SNAP
 10
0.291452
 20
0.00478354
 30
0
  0
VERTEX
  8
72_ARTEK_AKFURNITURE_D2SNAP
 10
0.29074
 20
0.00243863
 30
0
  0
VERTEX
  8
72_ARTEK_AKFURNITURE_D2SNAP
 10
0.2905
 20
3.15316e-018
 30
0
  0
VERTEX
  8
72_ARTEK_AKFURNITURE_D2SNAP
 10
0.29074
 20
-0.00243863
 30
0
  0
VERTEX
  8
72_ARTEK_AKFURNITURE_D2SNAP
 10
0.291452
 20
-0.00478354
 30
0
  0
VERTEX
  8
72_ARTEK_AKFURNITURE_D2SNAP
 10
0.292607
 20
-0.00694463
 30
0
  0
VERTEX
  8
72_ARTEK_AKFURNITURE_D2SNAP
 10
0.294161
 20
-0.00883883
 30
0
  0
VERTEX
  8
72_ARTEK_AKFURNITURE_D2SNAP
 10
0.296055
 20
-0.0103934
 30
0
  0
VERTEX
  8
72_ARTEK_AKFURNITURE_D2SNAP
 10
0.298216
 20
-0.0115485
 30
0
  0
VERTEX
  8
72_ARTEK_AKFURNITURE_D2SNAP
 10
0.300561
 20
-0.0122598
 30
0
  0
VERTEX
  8
72_ARTEK_AKFURNITURE_D2SNAP
 10
0.303
 20
-0.0125
 30
0
  0
VERTEX
  8
72_ARTEK_AKFURNITURE_D2SNAP
 10
0.305439
 20
-0.0122598
 30
0
  0
VERTEX
  8
72_ARTEK_AKFURNITURE_D2SNAP
 10
0.307784
 20
-0.0115485
 30
0
  0
VERTEX
  8
72_ARTEK_AKFURNITURE_D2SNAP
 10
0.309945
 20
-0.0103934
 30
0
  0
VERTEX
  8
72_ARTEK_AKFURNITURE_D2SNAP
 10
0.311839
 20
-0.00883883
 30
0
  0
VERTEX
  8
72_ARTEK_AKFURNITURE_D2SNAP
 10
0.313393
 20
-0.00694463
 30
0
  0
VERTEX
  8
72_ARTEK_AKFURNITURE_D2SNAP
 10
0.314548
 20
-0.00478354
 30
0
  0
VERTEX
  8
72_ARTEK_AKFURNITURE_D2SNAP
 10
0.31526
 20
-0.00243863
 30
0
  0
VERTEX
  8
72_ARTEK_AKFURNITURE_D2SNAP
 10
0.3155
 20
-0
 30
0
  0
SEQEND
  0
POLYLINE
  8
72_ARTEK_AKFURNITURE_D2SNAP
 66
     1
 70
     0
 10
0.0
 20
0.0
 30
0.0
  0
VERTEX
  8
72_ARTEK_AKFURNITURE_D2SNAP
 10
0.285322
 20
-0.0176777
 30
0
  0
VERTEX
  8
72_ARTEK_AKFURNITURE_D2SNAP
 10
0.320678
 20
0.0176777
 30
0
  0
SEQEND
  0
POLYLINE
  8
72_ARTEK_AKFURNITURE_D2SNAP
 66
     1
 70
     0
 10
0.0
 20
0.0
 30
0.0
  0
VERTEX
  8
72_ARTEK_AKFURNITURE_D2SNAP
 10
0.285322
 20
0.0176777
 30
0
  0
VERTEX
  8
72_ARTEK_AKFURNITURE_D2SNAP
 10
0.320678
 20
-0.0176777
 30
0
  0
SEQEND
  0
POLYLINE
  8
72_ARTEK_AKFURNITURE_D2_CH_FOO
 66
     1
 70
     0
 10
0.0
 20
0.0
 30
0.0
  0
VERTEX
  8
72_ARTEK_AKFURNITURE_D2_CH_FOO
 10
0.019
 20
0.127422
 30
0
  0
VERTEX
  8
72_ARTEK_AKFURNITURE_D2_CH_FOO
 10
0.015
 20
0.127422
 30
0
  0
VERTEX
  8
72_ARTEK_AKFURNITURE_D2_CH_FOO
 10
0.015
 20
0.300233
 30
0
  0
VERTEX
  8
72_ARTEK_AKFURNITURE_D2_CH_FOO
 10
0.015
 20
0.300233
 30
0
  0
VERTEX
  8
72_ARTEK_AKFURNITURE_D2_CH_FOO
 10
0.0148638
 20
0.298763
 30
0
  0
VERTEX
  8
72_ARTEK_AKFURNITURE_D2_CH_FOO
 10
0.0144598
 20
0.297343
 30
0
  0
VERTEX
  8
72_ARTEK_AKFURNITURE_D2_CH_FOO
 10
0.0138017
 20
0.296022
 30
0
  0
VERTEX
  8
72_ARTEK_AKFURNITURE_D2_CH_FOO
 10
0.0129121
 20
0.294844
 30
0
  0
VERTEX
  8
72_ARTEK_AKFURNITURE_D2_CH_FOO
 10
0.0118211
 20
0.293849
 30
0
  0
VERTEX
  8
72_ARTEK_AKFURNITURE_D2_CH_FOO
 10
0.0105659
 20
0.293072
 30
0
  0
VERTEX
  8
72_ARTEK_AKFURNITURE_D2_CH_FOO
 10
0.00918929
 20
0.292539
 30
0
  0
VERTEX
  8
72_ARTEK_AKFURNITURE_D2_CH_FOO
 10
0.00773814
 20
0.292268
 30
0
  0
VERTEX
  8
72_ARTEK_AKFURNITURE_D2_CH_FOO
 10
0.00626184
 20
0.292268
 30
0
  0
VERTEX
  8
72_ARTEK_AKFURNITURE_D2_CH_FOO
 10
0.00481069
 20
0.292539
 30
0
  0
VERTEX
  8
72_ARTEK_AKFURNITURE_D2_CH_FOO
 10
0.00343409
 20
0.293072
 30
0
  0
VERTEX
  8
72_ARTEK_AKFURNITURE_D2_CH_FOO
 10
0.00217893
 20
0.293849
 30
0
  0
VERTEX
  8
72_ARTEK_AKFURNITURE_D2_CH_FOO
 10
0.00108794
 20
0.294844
 30
0
  0
VERTEX
  8
72_ARTEK_AKFURNITURE_D2_CH_FOO
 10
0.00019828
 20
0.296022
 30
0
  0
VERTEX
  8
72_ARTEK_AKFURNITURE_D2_CH_FOO
 10
-0.000459752
 20
0.297343
 30
0
  0
VERTEX
  8
72_ARTEK_AKFURNITURE_D2_CH_FOO
 10
-0.000863749
 20
0.298763
 30
0
  0
VERTEX
  8
72_ARTEK_AKFURNITURE_D2_CH_FOO
 10
-0.000999954
 20
0.300233
 30
0
  0
VERTEX
  8
72_ARTEK_AKFURNITURE_D2_CH_FOO
 10
-0.000999954
 20
-0.298767
 30
0
  0
VERTEX
  8
72_ARTEK_AKFURNITURE_D2_CH_FOO
 10
-0.000999954
 20
-0.298767
 30
0
  0
VERTEX
  8
72_ARTEK_AKFURNITURE_D2_CH_FOO
 10
-0.000863749
 20
-0.297297
 30
0
  0
VERTEX
  8
72_ARTEK_AKFURNITURE_D2_CH_FOO
 10
-0.00045975
 20
-0.295877
 30
0
  0
VERTEX
  8
72_ARTEK_AKFURNITURE_D2_CH_FOO
 10
0.000198285
 20
-0.294555
 30
0
  0
VERTEX
  8
72_ARTEK_AKFURNITURE_D2_CH_FOO
 10
0.00108795
 20
-0.293377
 30
0
  0
VERTEX
  8
72_ARTEK_AKFURNITURE_D2_CH_FOO
 10
0.00217894
 20
-0.292382
 30
0
  0
VERTEX
  8
72_ARTEK_AKFURNITURE_D2_CH_FOO
 10
0.00343411
 20
-0.291605
 30
0
  0
VERTEX
  8
72_ARTEK_AKFURNITURE_D2_CH_FOO
 10
0.00481071
 20
-0.291072
 30
0
  0
VERTEX
  8
72_ARTEK_AKFURNITURE_D2_CH_FOO
 10
0.00626187
 20
-0.290801
 30
0
  0
VERTEX
  8
72_ARTEK_AKFURNITURE_D2_CH_FOO
 10
0.00773817
 20
-0.290801
 30
0
  0
VERTEX
  8
72_ARTEK_AKFURNITURE_D2_CH_FOO
 10
0.00918933
 20
-0.291072
 30
0
  0
VERTEX
  8
72_ARTEK_AKFURNITURE_D2_CH_FOO
 10
0.0105659
 20
-0.291605
 30
0
  0
VERTEX
  8
72_ARTEK_AKFURNITURE_D2_CH_FOO
 10
0.0118211
 20
-0.292382
 30
0
  0
VERTEX
  8
72_ARTEK_AKFURNITURE_D2_CH_FOO
 10
0.0129121
 20
-0.293377
 30
0
  0
VERTEX
  8
72_ARTEK_AKFURNITURE_D2_CH_FOO
 10
0.0138018
 20
-0.294555
 30
0
  0
VERTEX
  8
72_ARTEK_AKFURNITURE_D2_CH_FOO
 10
0.0144598
 20
-0.295877
 30
0
  0
VERTEX
  8
72_ARTEK_AKFURNITURE_D2_CH_FOO
 10
0.0148638
 20
-0.297297
 30
0
  0
VERTEX
  8
72_ARTEK_AKFURNITURE_D2_CH_FOO
 10
0.015
 20
-0.298767
 30
0
  0
VERTEX
  8
72_ARTEK_AKFURNITURE_D2_CH_FOO
 10
0.015
 20
-0.110281
 30
0
  0
VERTEX
  8
72_ARTEK_AKFURNITURE_D2_CH_FOO
 10
0.019
 20
-0.110281
 30
0
  0
VERTEX
  8
72_ARTEK_AKFURNITURE_D2_CH_FOO
 10
0.019
 20
-0.0922813
 30
0
  0
VERTEX
  8
72_ARTEK_AKFURNITURE_D2_CH_FOO
 10
0.015
 20
-0.0922813
 30
0
  0
VERTEX
  8
72_ARTEK_AKFURNITURE_D2_CH_FOO
 10
0.015
 20
0.109422
 30
0
  0
VERTEX
  8
72_ARTEK_AKFURNITURE_D2_CH_FOO
 10
0.019
 20
0.109422
 30
0
  0
VERTEX
  8
72_ARTEK_AKFURNITURE_D2_CH_FOO
 10
0.019
 20
0.127422
 30
0
  0
SEQEND
  0
POLYLINE
  8
72_ARTEK_AKFURNITURE_D2_CH_FOO
 66
     1
 70
     0
 10
0.0
 20
0.0
 30
0.0
  0
VERTEX
  8
72_ARTEK_AKFURNITURE_D2_CH_FOO
 10
0.015
 20
-0.313767
 30
0
  0
VERTEX
  8
72_ARTEK_AKFURNITURE_D2_CH_FOO
 10
0.015
 20
-0.298767
 30
0
  0
VERTEX
  8
72_ARTEK_AKFURNITURE_D2_CH_FOO
 10
0.015
 20
-0.298767
 30
0
  0
VERTEX
  8
72_ARTEK_AKFURNITURE_D2_CH_FOO
 10
0.0148638
 20
-0.297297
 30
0
  0
VERTEX
  8
72_ARTEK_AKFURNITURE_D2_CH_FOO
 10
0.0144598
 20
-0.295877
 30
0
  0
VERTEX
  8
72_ARTEK_AKFURNITURE_D2_CH_FOO
 10
0.0138018
 20
-0.294555
 30
0
  0
VERTEX
  8
72_ARTEK_AKFURNITURE_D2_CH_FOO
 10
0.0129121
 20
-0.293377
 30
0
  0
VERTEX
  8
72_ARTEK_AKFURNITURE_D2_CH_FOO
 10
0.0118211
 20
-0.292382
 30
0
  0
VERTEX
  8
72_ARTEK_AKFURNITURE_D2_CH_FOO
 10
0.0105659
 20
-0.291605
 30
0
  0
VERTEX
  8
72_ARTEK_AKFURNITURE_D2_CH_FOO
 10
0.00918933
 20
-0.291072
 30
0
  0
VERTEX
  8
72_ARTEK_AKFURNITURE_D2_CH_FOO
 10
0.00773817
 20
-0.290801
 30
0
  0
VERTEX
  8
72_ARTEK_AKFURNITURE_D2_CH_FOO
 10
0.00626187
 20
-0.290801
 30
0
  0
VERTEX
  8
72_ARTEK_AKFURNITURE_D2_CH_FOO
 10
0.00481071
 20
-0.291072
 30
0
  0
VERTEX
  8
72_ARTEK_AKFURNITURE_D2_CH_FOO
 10
0.00343411
 20
-0.291605
 30
0
  0
VERTEX
  8
72_ARTEK_AKFURNITURE_D2_CH_FOO
 10
0.00217894
 20
-0.292382
 30
0
  0
VERTEX
  8
72_ARTEK_AKFURNITURE_D2_CH_FOO
 10
0.00108795
 20
-0.293377
 30
0
  0
VERTEX
  8
72_ARTEK_AKFURNITURE_D2_CH_FOO
 10
0.000198285
 20
-0.294555
 30
0
  0
VERTEX
  8
72_ARTEK_AKFURNITURE_D2_CH_FOO
 10
-0.00045975
 20
-0.295877
 30
0
  0
VERTEX
  8
72_ARTEK_AKFURNITURE_D2_CH_FOO
 10
-0.000863749
 20
-0.297297
 30
0
  0
VERTEX
  8
72_ARTEK_AKFURNITURE_D2_CH_FOO
 10
-0.000999954
 20
-0.298767
 30
0
  0
VERTEX
  8
72_ARTEK_AKFURNITURE_D2_CH_FOO
 10
-0.000999954
 20
-0.313767
 30
0
  0
VERTEX
  8
72_ARTEK_AKFURNITURE_D2_CH_FOO
 10
-0.000999954
 20
-0.313767
 30
0
  0
VERTEX
  8
72_ARTEK_AKFURNITURE_D2_CH_FOO
 10
-0.000863749
 20
-0.315237
 30
0
  0
VERTEX
  8
72_ARTEK_AKFURNITURE_D2_CH_FOO
 10
-0.000459752
 20
-0.316657
 30
0
  0
VERTEX
  8
72_ARTEK_AKFURNITURE_D2_CH_FOO
 10
0.00019828
 20
-0.317978
 30
0
  0
VERTEX
  8
72_ARTEK_AKFURNITURE_D2_CH_FOO
 10
0.00108794
 20
-0.319156
 30
0
  0
VERTEX
  8
72_ARTEK_AKFURNITURE_D2_CH_FOO
 10
0.00217893
 20
-0.320151
 30
0
  0
VERTEX
  8
72_ARTEK_AKFURNITURE_D2_CH_FOO
 10
0.00343409
 20
-0.320928
 30
0
  0
VERTEX
  8
72_ARTEK_AKFURNITURE_D2_CH_FOO
 10
0.00481069
 20
-0.321461
 30
0
  0
VERTEX
  8
72_ARTEK_AKFURNITURE_D2_CH_FOO
 10
0.00626184
 20
-0.321732
 30
0
  0
VERTEX
  8
72_ARTEK_AKFURNITURE_D2_CH_FOO
 10
0.00773814
 20
-0.321733
 30
0
  0
VERTEX
  8
72_ARTEK_AKFURNITURE_D2_CH_FOO
 10
0.00918929
 20
-0.321461
 30
0
  0
VERTEX
  8
72_ARTEK_AKFURNITURE_D2_CH_FOO
 10
0.0105659
 20
-0.320928
 30
0
  0
VERTEX
  8
72_ARTEK_AKFURNITURE_D2_CH_FOO
 10
0.0118211
 20
-0.320151
 30
0
  0
VERTEX
  8
72_ARTEK_AKFURNITURE_D2_CH_FOO
 10
0.0129121
 20
-0.319156
 30
0
  0
VERTEX
  8
72_ARTEK_AKFURNITURE_D2_CH_FOO
 10
0.0138017
 20
-0.317978
 30
0
  0
VERTEX
  8
72_ARTEK_AKFURNITURE_D2_CH_FOO
 10
0.0144598
 20
-0.316657
 30
0
  0
VERTEX
  8
72_ARTEK_AKFURNITURE_D2_CH_FOO
 10
0.0148638
 20
-0.315237
 30
0
  0
VERTEX
  8
72_ARTEK_AKFURNITURE_D2_CH_FOO
 10
0.015
 20
-0.313767
 30
0
  0
SEQEND
  0
POLYLINE
  8
72_ARTEK_AKFURNITURE_D2_CH_FOO
 66
     1
 70
     0
 10
0.0
 20
0.0
 30
0.0
  0
VERTEX
  8
72_ARTEK_AKFURNITURE_D2_CH_FOO
 10
0.015
 20
0.300233
 30
0
  0
VERTEX
  8
72_ARTEK_AKFURNITURE_D2_CH_FOO
 10
0.015
 20
0.315233
 30
0
  0
VERTEX
  8
72_ARTEK_AKFURNITURE_D2_CH_FOO
 10
0.015
 20
0.315233
 30
0
  0
VERTEX
  8
72_ARTEK_AKFURNITURE_D2_CH_FOO
 10
0.0148638
 20
0.316703
 30
0
  0
VERTEX
  8
72_ARTEK_AKFURNITURE_D2_CH_FOO
 10
0.0144598
 20
0.318123
 30
0
  0
VERTEX
  8
72_ARTEK_AKFURNITURE_D2_CH_FOO
 10
0.0138018
 20
0.319445
 30
0
  0
VERTEX
  8
72_ARTEK_AKFURNITURE_D2_CH_FOO
 10
0.0129121
 20
0.320623
 30
0
  0
VERTEX
  8
72_ARTEK_AKFURNITURE_D2_CH_FOO
 10
0.0118211
 20
0.321618
 30
0
  0
VERTEX
  8
72_ARTEK_AKFURNITURE_D2_CH_FOO
 10
0.0105659
 20
0.322395
 30
0
  0
VERTEX
  8
72_ARTEK_AKFURNITURE_D2_CH_FOO
 10
0.00918933
 20
0.322928
 30
0
  0
VERTEX
  8
72_ARTEK_AKFURNITURE_D2_CH_FOO
 10
0.00773817
 20
0.323199
 30
0
  0
VERTEX
  8
72_ARTEK_AKFURNITURE_D2_CH_FOO
 10
0.00626187
 20
0.323199
 30
0
  0
VERTEX
  8
72_ARTEK_AKFURNITURE_D2_CH_FOO
 10
0.00481071
 20
0.322928
 30
0
  0
VERTEX
  8
72_ARTEK_AKFURNITURE_D2_CH_FOO
 10
0.00343411
 20
0.322395
 30
0
  0
VERTEX
  8
72_ARTEK_AKFURNITURE_D2_CH_FOO
 10
0.00217894
 20
0.321618
 30
0
  0
VERTEX
  8
72_ARTEK_AKFURNITURE_D2_CH_FOO
 10
0.00108795
 20
0.320623
 30
0
  0
VERTEX
  8
72_ARTEK_AKFURNITURE_D2_CH_FOO
 10
0.000198285
 20
0.319445
 30
0
  0
VERTEX
  8
72_ARTEK_AKFURNITURE_D2_CH_FOO
 10
-0.00045975
 20
0.318123
 30
0
  0
VERTEX
  8
72_ARTEK_AKFURNITURE_D2_CH_FOO
 10
-0.000863749
 20
0.316703
 30
0
  0
VERTEX
  8
72_ARTEK_AKFURNITURE_D2_CH_FOO
 10
-0.000999954
 20
0.315233
 30
0
  0
VERTEX
  8
72_ARTEK_AKFURNITURE_D2_CH_FOO
 10
-0.000999954
 20
0.300233
 30
0
  0
VERTEX
  8
72_ARTEK_AKFURNITURE_D2_CH_FOO
 10
-0.000999954
 20
0.300233
 30
0
  0
VERTEX
  8
72_ARTEK_AKFURNITURE_D2_CH_FOO
 10
-0.000863749
 20
0.298763
 30
0
  0
VERTEX
  8
72_ARTEK_AKFURNITURE_D2_CH_FOO
 10
-0.000459752
 20
0.297343
 30
0
  0
VERTEX
  8
72_ARTEK_AKFURNITURE_D2_CH_FOO
 10
0.00019828
 20
0.296022
 30
0
  0
VERTEX
  8
72_ARTEK_AKFURNITURE_D2_CH_FOO
 10
0.00108794
 20
0.294844
 30
0
  0
VERTEX
  8
72_ARTEK_AKFURNITURE_D2_CH_FOO
 10
0.00217893
 20
0.293849
 30
0
  0
VERTEX
  8
72_ARTEK_AKFURNITURE_D2_CH_FOO
 10
0.00343409
 20
0.293072
 30
0
  0
VERTEX
  8
72_ARTEK_AKFURNITURE_D2_CH_FOO
 10
0.00481069
 20
0.292539
 30
0
  0
VERTEX
  8
72_ARTEK_AKFURNITURE_D2_CH_FOO
 10
0.00626184
 20
0.292268
 30
0
  0
VERTEX
  8
72_ARTEK_AKFURNITURE_D2_CH_FOO
 10
0.00773814
 20
0.292268
 30
0
  0
VERTEX
  8
72_ARTEK_AKFURNITURE_D2_CH_FOO
 10
0.00918929
 20
0.292539
 30
0
  0
VERTEX
  8
72_ARTEK_AKFURNITURE_D2_CH_FOO
 10
0.0105659
 20
0.293072
 30
0
  0
VERTEX
  8
72_ARTEK_AKFURNITURE_D2_CH_FOO
 10
0.0118211
 20
0.293849
 30
0
  0
VERTEX
  8
72_ARTEK_AKFURNITURE_D2_CH_FOO
 10
0.0129121
 20
0.294844
 30
0
  0
VERTEX
  8
72_ARTEK_AKFURNITURE_D2_CH_FOO
 10
0.0138017
 20
0.296022
 30
0
  0
VERTEX
  8
72_ARTEK_AKFURNITURE_D2_CH_FOO
 10
0.0144598
 20
0.297343
 30
0
  0
VERTEX
  8
72_ARTEK_AKFURNITURE_D2_CH_FOO
 10
0.0148638
 20
0.298763
 30
0
  0
VERTEX
  8
72_ARTEK_AKFURNITURE_D2_CH_FOO
 10
0.015
 20
0.300233
 30
0
  0
SEQEND
  0
POLYLINE
  8
72_ARTEK_AKFURNITURE_D2_CH_FOO
 66
     1
 70
     0
 10
0.0
 20
0.0
 30
0.0
  0
VERTEX
  8
72_ARTEK_AKFURNITURE_D2_CH_FOO
 10
0.015
 20
-0.297267
 30
0
  0
VERTEX
  8
72_ARTEK_AKFURNITURE_D2_CH_FOO
 10
0.015
 20
-0.315267
 30
0
  0
VERTEX
  8
72_ARTEK_AKFURNITURE_D2_CH_FOO
 10
0.019
 20
-0.315267
 30
0
  0
VERTEX
  8
72_ARTEK_AKFURNITURE_D2_CH_FOO
 10
0.019
 20
-0.297267
 30
0
  0
VERTEX
  8
72_ARTEK_AKFURNITURE_D2_CH_FOO
 10
0.015
 20
-0.297267
 30
0
  0
SEQEND
  0
POLYLINE
  8
72_ARTEK_AKFURNITURE_D2_CH_FOO
 66
     1
 70
     0
 10
0.0
 20
0.0
 30
0.0
  0
VERTEX
  8
72_ARTEK_AKFURNITURE_D2_CH_FOO
 10
0.015
 20
0.316733
 30
0
  0
VERTEX
  8
72_ARTEK_AKFURNITURE_D2_CH_FOO
 10
0.015
 20
0.298733
 30
0
  0
VERTEX
  8
72_ARTEK_AKFURNITURE_D2_CH_FOO
 10
0.019
 20
0.298733
 30
0
  0
VERTEX
  8
72_ARTEK_AKFURNITURE_D2_CH_FOO
 10
0.019
 20
0.316733
 30
0
  0
VERTEX
  8
72_ARTEK_AKFURNITURE_D2_CH_FOO
 10
0.015
 20
0.316733
 30
0
  0
SEQEND
  0
POLYLINE
  8
72_ARTEK_AKFURNITURE_D2_CH_FOO
 66
     1
 70
     0
 10
0.0
 20
0.0
 30
0.0
  0
VERTEX
  8
72_ARTEK_AKFURNITURE_D2_CH_FOO
 10
0.587
 20
0.127422
 30
0
  0
VERTEX
  8
72_ARTEK_AKFURNITURE_D2_CH_FOO
 10
0.591
 20
0.127422
 30
0
  0
VERTEX
  8
72_ARTEK_AKFURNITURE_D2_CH_FOO
 10
0.591
 20
0.300233
 30
0
  0
VERTEX
  8
72_ARTEK_AKFURNITURE_D2_CH_FOO
 10
0.591
 20
0.300233
 30
0
  0
VERTEX
  8
72_ARTEK_AKFURNITURE_D2_CH_FOO
 10
0.591136
 20
0.298763
 30
0
  0
VERTEX
  8
72_ARTEK_AKFURNITURE_D2_CH_FOO
 10
0.59154
 20
0.297343
 30
0
  0
VERTEX
  8
72_ARTEK_AKFURNITURE_D2_CH_FOO
 10
0.592198
 20
0.296022
 30
0
  0
VERTEX
  8
72_ARTEK_AKFURNITURE_D2_CH_FOO
 10
0.593088
 20
0.294844
 30
0
  0
VERTEX
  8
72_ARTEK_AKFURNITURE_D2_CH_FOO
 10
0.594179
 20
0.293849
 30
0
  0
VERTEX
  8
72_ARTEK_AKFURNITURE_D2_CH_FOO
 10
0.595434
 20
0.293072
 30
0
  0
VERTEX
  8
72_ARTEK_AKFURNITURE_D2_CH_FOO
 10
0.596811
 20
0.292539
 30
0
  0
VERTEX
  8
72_ARTEK_AKFURNITURE_D2_CH_FOO
 10
0.598262
 20
0.292268
 30
0
  0
VERTEX
  8
72_ARTEK_AKFURNITURE_D2_CH_FOO
 10
0.599738
 20
0.292268
 30
0
  0
VERTEX
  8
72_ARTEK_AKFURNITURE_D2_CH_FOO
 10
0.601189
 20
0.292539
 30
0
  0
VERTEX
  8
72_ARTEK_AKFURNITURE_D2_CH_FOO
 10
0.602566
 20
0.293072
 30
0
  0
VERTEX
  8
72_ARTEK_AKFURNITURE_D2_CH_FOO
 10
0.603821
 20
0.293849
 30
0
  0
VERTEX
  8
72_ARTEK_AKFURNITURE_D2_CH_FOO
 10
0.604912
 20
0.294844
 30
0
  0
VERTEX
  8
72_ARTEK_AKFURNITURE_D2_CH_FOO
 10
0.605802
 20
0.296022
 30
0
  0
VERTEX
  8
72_ARTEK_AKFURNITURE_D2_CH_FOO
 10
0.60646
 20
0.297343
 30
0
  0
VERTEX
  8
72_ARTEK_AKFURNITURE_D2_CH_FOO
 10
0.606864
 20
0.298763
 30
0
  0
VERTEX
  8
72_ARTEK_AKFURNITURE_D2_CH_FOO
 10
0.607
 20
0.300233
 30
0
  0
VERTEX
  8
72_ARTEK_AKFURNITURE_D2_CH_FOO
 10
0.607
 20
-0.298767
 30
0
  0
VERTEX
  8
72_ARTEK_AKFURNITURE_D2_CH_FOO
 10
0.607
 20
-0.298767
 30
0
  0
VERTEX
  8
72_ARTEK_AKFURNITURE_D2_CH_FOO
 10
0.606864
 20
-0.297297
 30
0
  0
VERTEX
  8
72_ARTEK_AKFURNITURE_D2_CH_FOO
 10
0.60646
 20
-0.295877
 30
0
  0
VERTEX
  8
72_ARTEK_AKFURNITURE_D2_CH_FOO
 10
0.605802
 20
-0.294555
 30
0
  0
VERTEX
  8
72_ARTEK_AKFURNITURE_D2_CH_FOO
 10
0.604912
 20
-0.293377
 30
0
  0
VERTEX
  8
72_ARTEK_AKFURNITURE_D2_CH_FOO
 10
0.603821
 20
-0.292382
 30
0
  0
VERTEX
  8
72_ARTEK_AKFURNITURE_D2_CH_FOO
 10
0.602566
 20
-0.291605
 30
0
  0
VERTEX
  8
72_ARTEK_AKFURNITURE_D2_CH_FOO
 10
0.601189
 20
-0.291072
 30
0
  0
VERTEX
  8
72_ARTEK_AKFURNITURE_D2_CH_FOO
 10
0.599738
 20
-0.290801
 30
0
  0
VERTEX
  8
72_ARTEK_AKFURNITURE_D2_CH_FOO
 10
0.598262
 20
-0.290801
 30
0
  0
VERTEX
  8
72_ARTEK_AKFURNITURE_D2_CH_FOO
 10
0.596811
 20
-0.291072
 30
0
  0
VERTEX
  8
72_ARTEK_AKFURNITURE_D2_CH_FOO
 10
0.595434
 20
-0.291605
 30
0
  0
VERTEX
  8
72_ARTEK_AKFURNITURE_D2_CH_FOO
 10
0.594179
 20
-0.292382
 30
0
  0
VERTEX
  8
72_ARTEK_AKFURNITURE_D2_CH_FOO
 10
0.593088
 20
-0.293377
 30
0
  0
VERTEX
  8
72_ARTEK_AKFURNITURE_D2_CH_FOO
 10
0.592198
 20
-0.294555
 30
0
  0
VERTEX
  8
72_ARTEK_AKFURNITURE_D2_CH_FOO
 10
0.59154
 20
-0.295877
 30
0
  0
VERTEX
  8
72_ARTEK_AKFURNITURE_D2_CH_FOO
 10
0.591136
 20
-0.297297
 30
0
  0
VERTEX
  8
72_ARTEK_AKFURNITURE_D2_CH_FOO
 10
0.591
 20
-0.298767
 30
0
  0
VERTEX
  8
72_ARTEK_AKFURNITURE_D2_CH_FOO
 10
0.591
 20
-0.110281
 30
0
  0
VERTEX
  8
72_ARTEK_AKFURNITURE_D2_CH_FOO
 10
0.587
 20
-0.110281
 30
0
  0
VERTEX
  8
72_ARTEK_AKFURNITURE_D2_CH_FOO
 10
0.587
 20
-0.0922813
 30
0
  0
VERTEX
  8
72_ARTEK_AKFURNITURE_D2_CH_FOO
 10
0.591
 20
-0.0922813
 30
0
  0
VERTEX
  8
72_ARTEK_AKFURNITURE_D2_CH_FOO
 10
0.591
 20
0.109422
 30
0
  0
VERTEX
  8
72_ARTEK_AKFURNITURE_D2_CH_FOO
 10
0.587
 20
0.109422
 30
0
  0
VERTEX
  8
72_ARTEK_AKFURNITURE_D2_CH_FOO
 10
0.587
 20
0.127422
 30
0
  0
SEQEND
  0
POLYLINE
  8
72_ARTEK_AKFURNITURE_D2_CH_FOO
 66
     1
 70
     0
 10
0.0
 20
0.0
 30
0.0
  0
VERTEX
  8
72_ARTEK_AKFURNITURE_D2_CH_FOO
 10
0.591
 20
-0.313767
 30
0
  0
VERTEX
  8
72_ARTEK_AKFURNITURE_D2_CH_FOO
 10
0.591
 20
-0.298767
 30
0
  0
VERTEX
  8
72_ARTEK_AKFURNITURE_D2_CH_FOO
 10
0.591
 20
-0.298767
 30
0
  0
VERTEX
  8
72_ARTEK_AKFURNITURE_D2_CH_FOO
 10
0.591136
 20
-0.297297
 30
0
  0
VERTEX
  8
72_ARTEK_AKFURNITURE_D2_CH_FOO
 10
0.59154
 20
-0.295877
 30
0
  0
VERTEX
  8
72_ARTEK_AKFURNITURE_D2_CH_FOO
 10
0.592198
 20
-0.294555
 30
0
  0
VERTEX
  8
72_ARTEK_AKFURNITURE_D2_CH_FOO
 10
0.593088
 20
-0.293377
 30
0
  0
VERTEX
  8
72_ARTEK_AKFURNITURE_D2_CH_FOO
 10
0.594179
 20
-0.292382
 30
0
  0
VERTEX
  8
72_ARTEK_AKFURNITURE_D2_CH_FOO
 10
0.595434
 20
-0.291605
 30
0
  0
VERTEX
  8
72_ARTEK_AKFURNITURE_D2_CH_FOO
 10
0.596811
 20
-0.291072
 30
0
  0
VERTEX
  8
72_ARTEK_AKFURNITURE_D2_CH_FOO
 10
0.598262
 20
-0.290801
 30
0
  0
VERTEX
  8
72_ARTEK_AKFURNITURE_D2_CH_FOO
 10
0.599738
 20
-0.290801
 30
0
  0
VERTEX
  8
72_ARTEK_AKFURNITURE_D2_CH_FOO
 10
0.601189
 20
-0.291072
 30
0
  0
VERTEX
  8
72_ARTEK_AKFURNITURE_D2_CH_FOO
 10
0.602566
 20
-0.291605
 30
0
  0
VERTEX
  8
72_ARTEK_AKFURNITURE_D2_CH_FOO
 10
0.603821
 20
-0.292382
 30
0
  0
VERTEX
  8
72_ARTEK_AKFURNITURE_D2_CH_FOO
 10
0.604912
 20
-0.293377
 30
0
  0
VERTEX
  8
72_ARTEK_AKFURNITURE_D2_CH_FOO
 10
0.605802
 20
-0.294555
 30
0
  0
VERTEX
  8
72_ARTEK_AKFURNITURE_D2_CH_FOO
 10
0.60646
 20
-0.295877
 30
0
  0
VERTEX
  8
72_ARTEK_AKFURNITURE_D2_CH_FOO
 10
0.606864
 20
-0.297297
 30
0
  0
VERTEX
  8
72_ARTEK_AKFURNITURE_D2_CH_FOO
 10
0.607
 20
-0.298767
 30
0
  0
VERTEX
  8
72_ARTEK_AKFURNITURE_D2_CH_FOO
 10
0.607
 20
-0.313767
 30
0
  0
VERTEX
  8
72_ARTEK_AKFURNITURE_D2_CH_FOO
 10
0.607
 20
-0.313767
 30
0
  0
VERTEX
  8
72_ARTEK_AKFURNITURE_D2_CH_FOO
 10
0.606864
 20
-0.315237
 30
0
  0
VERTEX
  8
72_ARTEK_AKFURNITURE_D2_CH_FOO
 10
0.60646
 20
-0.316657
 30
0
  0
VERTEX
  8
72_ARTEK_AKFURNITURE_D2_CH_FOO
 10
0.605802
 20
-0.317978
 30
0
  0
VERTEX
  8
72_ARTEK_AKFURNITURE_D2_CH_FOO
 10
0.604912
 20
-0.319156
 30
0
  0
VERTEX
  8
72_ARTEK_AKFURNITURE_D2_CH_FOO
 10
0.603821
 20
-0.320151
 30
0
  0
VERTEX
  8
72_ARTEK_AKFURNITURE_D2_CH_FOO
 10
0.602566
 20
-0.320928
 30
0
  0
VERTEX
  8
72_ARTEK_AKFURNITURE_D2_CH_FOO
 10
0.601189
 20
-0.321461
 30
0
  0
VERTEX
  8
72_ARTEK_AKFURNITURE_D2_CH_FOO
 10
0.599738
 20
-0.321732
 30
0
  0
VERTEX
  8
72_ARTEK_AKFURNITURE_D2_CH_FOO
 10
0.598262
 20
-0.321733
 30
0
  0
VERTEX
  8
72_ARTEK_AKFURNITURE_D2_CH_FOO
 10
0.596811
 20
-0.321461
 30
0
  0
VERTEX
  8
72_ARTEK_AKFURNITURE_D2_CH_FOO
 10
0.595434
 20
-0.320928
 30
0
  0
VERTEX
  8
72_ARTEK_AKFURNITURE_D2_CH_FOO
 10
0.594179
 20
-0.320151
 30
0
  0
VERTEX
  8
72_ARTEK_AKFURNITURE_D2_CH_FOO
 10
0.593088
 20
-0.319156
 30
0
  0
VERTEX
  8
72_ARTEK_AKFURNITURE_D2_CH_FOO
 10
0.592198
 20
-0.317978
 30
0
  0
VERTEX
  8
72_ARTEK_AKFURNITURE_D2_CH_FOO
 10
0.59154
 20
-0.316657
 30
0
  0
VERTEX
  8
72_ARTEK_AKFURNITURE_D2_CH_FOO
 10
0.591136
 20
-0.315237
 30
0
  0
VERTEX
  8
72_ARTEK_AKFURNITURE_D2_CH_FOO
 10
0.591
 20
-0.313767
 30
0
  0
SEQEND
  0
POLYLINE
  8
72_ARTEK_AKFURNITURE_D2_CH_FOO
 66
     1
 70
     0
 10
0.0
 20
0.0
 30
0.0
  0
VERTEX
  8
72_ARTEK_AKFURNITURE_D2_CH_FOO
 10
0.591
 20
0.300233
 30
0
  0
VERTEX
  8
72_ARTEK_AKFURNITURE_D2_CH_FOO
 10
0.591
 20
0.315233
 30
0
  0
VERTEX
  8
72_ARTEK_AKFURNITURE_D2_CH_FOO
 10
0.591
 20
0.315233
 30
0
  0
VERTEX
  8
72_ARTEK_AKFURNITURE_D2_CH_FOO
 10
0.591136
 20
0.316703
 30
0
  0
VERTEX
  8
72_ARTEK_AKFURNITURE_D2_CH_FOO
 10
0.59154
 20
0.318123
 30
0
  0
VERTEX
  8
72_ARTEK_AKFURNITURE_D2_CH_FOO
 10
0.592198
 20
0.319445
 30
0
  0
VERTEX
  8
72_ARTEK_AKFURNITURE_D2_CH_FOO
 10
0.593088
 20
0.320623
 30
0
  0
VERTEX
  8
72_ARTEK_AKFURNITURE_D2_CH_FOO
 10
0.594179
 20
0.321618
 30
0
  0
VERTEX
  8
72_ARTEK_AKFURNITURE_D2_CH_FOO
 10
0.595434
 20
0.322395
 30
0
  0
VERTEX
  8
72_ARTEK_AKFURNITURE_D2_CH_FOO
 10
0.596811
 20
0.322928
 30
0
  0
VERTEX
  8
72_ARTEK_AKFURNITURE_D2_CH_FOO
 10
0.598262
 20
0.323199
 30
0
  0
VERTEX
  8
72_ARTEK_AKFURNITURE_D2_CH_FOO
 10
0.599738
 20
0.323199
 30
0
  0
VERTEX
  8
72_ARTEK_AKFURNITURE_D2_CH_FOO
 10
0.601189
 20
0.322928
 30
0
  0
VERTEX
  8
72_ARTEK_AKFURNITURE_D2_CH_FOO
 10
0.602566
 20
0.322395
 30
0
  0
VERTEX
  8
72_ARTEK_AKFURNITURE_D2_CH_FOO
 10
0.603821
 20
0.321618
 30
0
  0
VERTEX
  8
72_ARTEK_AKFURNITURE_D2_CH_FOO
 10
0.604912
 20
0.320623
 30
0
  0
VERTEX
  8
72_ARTEK_AKFURNITURE_D2_CH_FOO
 10
0.605802
 20
0.319445
 30
0
  0
VERTEX
  8
72_ARTEK_AKFURNITURE_D2_CH_FOO
 10
0.60646
 20
0.318123
 30
0
  0
VERTEX
  8
72_ARTEK_AKFURNITURE_D2_CH_FOO
 10
0.606864
 20
0.316703
 30
0
  0
VERTEX
  8
72_ARTEK_AKFURNITURE_D2_CH_FOO
 10
0.607
 20
0.315233
 30
0
  0
VERTEX
  8
72_ARTEK_AKFURNITURE_D2_CH_FOO
 10
0.607
 20
0.300233
 30
0
  0
VERTEX
  8
72_ARTEK_AKFURNITURE_D2_CH_FOO
 10
0.607
 20
0.300233
 30
0
  0
VERTEX
  8
72_ARTEK_AKFURNITURE_D2_CH_FOO
 10
0.606864
 20
0.298763
 30
0
  0
VERTEX
  8
72_ARTEK_AKFURNITURE_D2_CH_FOO
 10
0.60646
 20
0.297343
 30
0
  0
VERTEX
  8
72_ARTEK_AKFURNITURE_D2_CH_FOO
 10
0.605802
 20
0.296022
 30
0
  0
VERTEX
  8
72_ARTEK_AKFURNITURE_D2_CH_FOO
 10
0.604912
 20
0.294844
 30
0
  0
VERTEX
  8
72_ARTEK_AKFURNITURE_D2_CH_FOO
 10
0.603821
 20
0.293849
 30
0
  0
VERTEX
  8
72_ARTEK_AKFURNITURE_D2_CH_FOO
 10
0.602566
 20
0.293072
 30
0
  0
VERTEX
  8
72_ARTEK_AKFURNITURE_D2_CH_FOO
 10
0.601189
 20
0.292539
 30
0
  0
VERTEX
  8
72_ARTEK_AKFURNITURE_D2_CH_FOO
 10
0.599738
 20
0.292268
 30
0
  0
VERTEX
  8
72_ARTEK_AKFURNITURE_D2_CH_FOO
 10
0.598262
 20
0.292268
 30
0
  0
VERTEX
  8
72_ARTEK_AKFURNITURE_D2_CH_FOO
 10
0.596811
 20
0.292539
 30
0
  0
VERTEX
  8
72_ARTEK_AKFURNITURE_D2_CH_FOO
 10
0.595434
 20
0.293072
 30
0
  0
VERTEX
  8
72_ARTEK_AKFURNITURE_D2_CH_FOO
 10
0.594179
 20
0.293849
 30
0
  0
VERTEX
  8
72_ARTEK_AKFURNITURE_D2_CH_FOO
 10
0.593088
 20
0.294844
 30
0
  0
VERTEX
  8
72_ARTEK_AKFURNITURE_D2_CH_FOO
 10
0.592198
 20
0.296022
 30
0
  0
VERTEX
  8
72_ARTEK_AKFURNITURE_D2_CH_FOO
 10
0.59154
 20
0.297343
 30
0
  0
VERTEX
  8
72_ARTEK_AKFURNITURE_D2_CH_FOO
 10
0.591136
 20
0.298763
 30
0
  0
VERTEX
  8
72_ARTEK_AKFURNITURE_D2_CH_FOO
 10
0.591
 20
0.300233
 30
0
  0
SEQEND
  0
POLYLINE
  8
72_ARTEK_AKFURNITURE_D2_CH_FOO
 66
     1
 70
     0
 10
0.0
 20
0.0
 30
0.0
  0
VERTEX
  8
72_ARTEK_AKFURNITURE_D2_CH_FOO
 10
0.591
 20
-0.297267
 30
0
  0
VERTEX
  8
72_ARTEK_AKFURNITURE_D2_CH_FOO
 10
0.591
 20
-0.315267
 30
0
  0
VERTEX
  8
72_ARTEK_AKFURNITURE_D2_CH_FOO
 10
0.587
 20
-0.315267
 30
0
  0
VERTEX
  8
72_ARTEK_AKFURNITURE_D2_CH_FOO
 10
0.587
 20
-0.297267
 30
0
  0
VERTEX
  8
72_ARTEK_AKFURNITURE_D2_CH_FOO
 10
0.591
 20
-0.297267
 30
0
  0
SEQEND
  0
POLYLINE
  8
72_ARTEK_AKFURNITURE_D2_CH_FOO
 66
     1
 70
     0
 10
0.0
 20
0.0
 30
0.0
  0
VERTEX
  8
72_ARTEK_AKFURNITURE_D2_CH_FOO
 10
0.591
 20
0.316733
 30
0
  0
VERTEX
  8
72_ARTEK_AKFURNITURE_D2_CH_FOO
 10
0.591
 20
0.298733
 30
0
  0
VERTEX
  8
72_ARTEK_AKFURNITURE_D2_CH_FOO
 10
0.587
 20
0.298733
 30
0
  0
VERTEX
  8
72_ARTEK_AKFURNITURE_D2_CH_FOO
 10
0.587
 20
0.316733
 30
0
  0
VERTEX
  8
72_ARTEK_AKFURNITURE_D2_CH_FOO
 10
0.591
 20
0.316733
 30
0
  0
SEQEND
  0
POLYLINE
  8
72_ARTEK_AKFURNITURE_D2SNAP
 66
     1
 70
     0
 10
0.0
 20
0.0
 30
0.0
  0
VERTEX
  8
72_ARTEK_AKFURNITURE_D2SNAP
 10
0.3155
 20
-0
 30
0
  0
VERTEX
  8
72_ARTEK_AKFURNITURE_D2SNAP
 10
0.31526
 20
0.00243863
 30
0
  0
VERTEX
  8
72_ARTEK_AKFURNITURE_D2SNAP
 10
0.314548
 20
0.00478354
 30
0
  0
VERTEX
  8
72_ARTEK_AKFURNITURE_D2SNAP
 10
0.313393
 20
0.00694463
 30
0
  0
VERTEX
  8
72_ARTEK_AKFURNITURE_D2SNAP
 10
0.311839
 20
0.00883883
 30
0
  0
VERTEX
  8
72_ARTEK_AKFURNITURE_D2SNAP
 10
0.309945
 20
0.0103934
 30
0
  0
VERTEX
  8
72_ARTEK_AKFURNITURE_D2SNAP
 10
0.307784
 20
0.0115485
 30
0
  0
VERTEX
  8
72_ARTEK_AKFURNITURE_D2SNAP
 10
0.305439
 20
0.0122598
 30
0
  0
VERTEX
  8
72_ARTEK_AKFURNITURE_D2SNAP
 10
0.303
 20
0.0125
 30
0
  0
VERTEX
  8
72_ARTEK_AKFURNITURE_D2SNAP
 10
0.300561
 20
0.0122598
 30
0
  0
VERTEX
  8
72_ARTEK_AKFURNITURE_D2SNAP
 10
0.298216
 20
0.0115485
 30
0
  0
VERTEX
  8
72_ARTEK_AKFURNITURE_D2SNAP
 10
0.296055
 20
0.0103934
 30
0
  0
VERTEX
  8
72_ARTEK_AKFURNITURE_D2SNAP
 10
0.294161
 20
0.00883883
 30
0
  0
VERTEX
  8
72_ARTEK_AKFURNITURE_D2SNAP
 10
0.292607
 20
0.00694463
 30
0
  0
VERTEX
  8
72_ARTEK_AKFURNITURE_D2SNAP
 10
0.291452
 20
0.00478354
 30
0
  0
VERTEX
  8
72_ARTEK_AKFURNITURE_D2SNAP
 10
0.29074
 20
0.00243863
 30
0
  0
VERTEX
  8
72_ARTEK_AKFURNITURE_D2SNAP
 10
0.2905
 20
3.15316e-018
 30
0
  0
VERTEX
  8
72_ARTEK_AKFURNITURE_D2SNAP
 10
0.29074
 20
-0.00243863
 30
0
  0
VERTEX
  8
72_ARTEK_AKFURNITURE_D2SNAP
 10
0.291452
 20
-0.00478354
 30
0
  0
VERTEX
  8
72_ARTEK_AKFURNITURE_D2SNAP
 10
0.292607
 20
-0.00694463
 30
0
  0
VERTEX
  8
72_ARTEK_AKFURNITURE_D2SNAP
 10
0.294161
 20
-0.00883883
 30
0
  0
VERTEX
  8
72_ARTEK_AKFURNITURE_D2SNAP
 10
0.296055
 20
-0.0103934
 30
0
  0
VERTEX
  8
72_ARTEK_AKFURNITURE_D2SNAP
 10
0.298216
 20
-0.0115485
 30
0
  0
VERTEX
  8
72_ARTEK_AKFURNITURE_D2SNAP
 10
0.300561
 20
-0.0122598
 30
0
  0
VERTEX
  8
72_ARTEK_AKFURNITURE_D2SNAP
 10
0.303
 20
-0.0125
 30
0
  0
VERTEX
  8
72_ARTEK_AKFURNITURE_D2SNAP
 10
0.305439
 20
-0.0122598
 30
0
  0
VERTEX
  8
72_ARTEK_AKFURNITURE_D2SNAP
 10
0.307784
 20
-0.0115485
 30
0
  0
VERTEX
  8
72_ARTEK_AKFURNITURE_D2SNAP
 10
0.309945
 20
-0.0103934
 30
0
  0
VERTEX
  8
72_ARTEK_AKFURNITURE_D2SNAP
 10
0.311839
 20
-0.00883883
 30
0
  0
VERTEX
  8
72_ARTEK_AKFURNITURE_D2SNAP
 10
0.313393
 20
-0.00694463
 30
0
  0
VERTEX
  8
72_ARTEK_AKFURNITURE_D2SNAP
 10
0.314548
 20
-0.00478354
 30
0
  0
VERTEX
  8
72_ARTEK_AKFURNITURE_D2SNAP
 10
0.31526
 20
-0.00243863
 30
0
  0
VERTEX
  8
72_ARTEK_AKFURNITURE_D2SNAP
 10
0.3155
 20
-0
 30
0
  0
SEQEND
  0
POLYLINE
  8
72_ARTEK_AKFURNITURE_D2SNAP
 66
     1
 70
     0
 10
0.0
 20
0.0
 30
0.0
  0
VERTEX
  8
72_ARTEK_AKFURNITURE_D2SNAP
 10
0.285322
 20
-0.0176777
 30
0
  0
VERTEX
  8
72_ARTEK_AKFURNITURE_D2SNAP
 10
0.320678
 20
0.0176777
 30
0
  0
SEQEND
  0
POLYLINE
  8
72_ARTEK_AKFURNITURE_D2SNAP
 66
     1
 70
     0
 10
0.0
 20
0.0
 30
0.0
  0
VERTEX
  8
72_ARTEK_AKFURNITURE_D2SNAP
 10
0.285322
 20
0.0176777
 30
0
  0
VERTEX
  8
72_ARTEK_AKFURNITURE_D2SNAP
 10
0.320678
 20
-0.0176777
 30
0
  0
SEQEND
  0
POLYLINE
  8
72_ARTEK_AKFURNITURE_D2_CH_SEA
 66
     1
 70
     0
 10
0.0
 20
0.0
 30
0.0
  0
VERTEX
  8
72_ARTEK_AKFURNITURE_D2_CH_SEA
 10
0.230209
 20
-0.354391
 30
0
  0
VERTEX
  8
72_ARTEK_AKFURNITURE_D2_CH_SEA
 10
0.23618
 20
-0.354392
 30
0
  0
VERTEX
  8
72_ARTEK_AKFURNITURE_D2_CH_SEA
 10
0.243499
 20
-0.354394
 30
0
  0
VERTEX
  8
72_ARTEK_AKFURNITURE_D2_CH_SEA
 10
0.252166
 20
-0.354397
 30
0
  0
VERTEX
  8
72_ARTEK_AKFURNITURE_D2_CH_SEA
 10
0.262179
 20
-0.354399
 30
0
  0
VERTEX
  8
72_ARTEK_AKFURNITURE_D2_CH_SEA
 10
0.304548
 20
-0.354404
 30
0
  0
VERTEX
  8
72_ARTEK_AKFURNITURE_D2_CH_SEA
 10
0.346884
 20
-0.354398
 30
0
  0
VERTEX
  8
72_ARTEK_AKFURNITURE_D2_CH_SEA
 10
0.356506
 20
-0.354396
 30
0
  0
VERTEX
  8
72_ARTEK_AKFURNITURE_D2_CH_SEA
 10
0.36478
 20
-0.354394
 30
0
  0
VERTEX
  8
72_ARTEK_AKFURNITURE_D2_CH_SEA
 10
0.371705
 20
-0.354392
 30
0
  0
VERTEX
  8
72_ARTEK_AKFURNITURE_D2_CH_SEA
 10
0.377339
 20
-0.35439
 30
0
  0
VERTEX
  8
72_ARTEK_AKFURNITURE_D2_CH_SEA
 10
0.419708
 20
-0.354361
 30
0
  0
VERTEX
  8
72_ARTEK_AKFURNITURE_D2_CH_SEA
 10
0.441036
 20
-0.354344
 30
0
  0
VERTEX
  8
72_ARTEK_AKFURNITURE_D2_CH_SEA
 10
0.454917
 20
-0.354336
 30
0
  0
VERTEX
  8
72_ARTEK_AKFURNITURE_D2_CH_SEA
 10
0.472592
 20
-0.354327
 30
0
  0
VERTEX
  8
72_ARTEK_AKFURNITURE_D2_CH_SEA
 10
0.479801
 20
-0.354323
 30
0
  0
VERTEX
  8
72_ARTEK_AKFURNITURE_D2_CH_SEA
 10
0.484835
 20
-0.354321
 30
0
  0
VERTEX
  8
72_ARTEK_AKFURNITURE_D2_CH_SEA
 10
0.487692
 20
-0.35432
 30
0
  0
VERTEX
  8
72_ARTEK_AKFURNITURE_D2_CH_SEA
 10
0.488844
 20
-0.35432
 30
0
  0
VERTEX
  8
72_ARTEK_AKFURNITURE_D2_CH_SEA
 10
0.492941
 20
-0.354319
 30
0
  0
VERTEX
  8
72_ARTEK_AKFURNITURE_D2_CH_SEA
 10
0.501132
 20
-0.354317
 30
0
  0
VERTEX
  8
72_ARTEK_AKFURNITURE_D2_CH_SEA
 10
0.516956
 20
-0.354295
 30
0
  0
VERTEX
  8
72_ARTEK_AKFURNITURE_D2_CH_SEA
 10
0.530454
 20
-0.354258
 30
0
  0
VERTEX
  8
72_ARTEK_AKFURNITURE_D2_CH_SEA
 10
0.540825
 20
-0.354204
 30
0
  0
VERTEX
  8
72_ARTEK_AKFURNITURE_D2_CH_SEA
 10
0.550569
 20
-0.354078
 30
0
  0
VERTEX
  8
72_ARTEK_AKFURNITURE_D2_CH_SEA
 10
0.557442
 20
-0.353948
 30
0
  0
VERTEX
  8
72_ARTEK_AKFURNITURE_D2_CH_SEA
 10
0.561049
 20
-0.353788
 30
0
  0
VERTEX
  8
72_ARTEK_AKFURNITURE_D2_CH_SEA
 10
0.563575
 20
-0.353617
 30
0
  0
VERTEX
  8
72_ARTEK_AKFURNITURE_D2_CH_SEA
 10
0.56849
 20
-0.353191
 30
0
  0
VERTEX
  8
72_ARTEK_AKFURNITURE_D2_CH_SEA
 10
0.575246
 20
-0.352218
 30
0
  0
VERTEX
  8
72_ARTEK_AKFURNITURE_D2_CH_SEA
 10
0.580099
 20
-0.350857
 30
0
  0
VERTEX
  8
72_ARTEK_AKFURNITURE_D2_CH_SEA
 10
0.583096
 20
-0.349389
 30
0
  0
VERTEX
  8
72_ARTEK_AKFURNITURE_D2_CH_SEA
 10
0.585742
 20
-0.346828
 30
0
  0
VERTEX
  8
72_ARTEK_AKFURNITURE_D2_CH_SEA
 10
0.586716
 20
-0.342936
 30
0
  0
VERTEX
  8
72_ARTEK_AKFURNITURE_D2_CH_SEA
 10
0.586865
 20
-0.336842
 30
0
  0
VERTEX
  8
72_ARTEK_AKFURNITURE_D2_CH_SEA
 10
0.586864
 20
-0.32779
 30
0
  0
VERTEX
  8
72_ARTEK_AKFURNITURE_D2_CH_SEA
 10
0.586864
 20
-0.253877
 30
0
  0
VERTEX
  8
72_ARTEK_AKFURNITURE_D2_CH_SEA
 10
0.586864
 20
-0.106051
 30
0
  0
VERTEX
  8
72_ARTEK_AKFURNITURE_D2_CH_SEA
 10
0.586864
 20
0.0417746
 30
0
  0
VERTEX
  8
72_ARTEK_AKFURNITURE_D2_CH_SEA
 10
0.586864
 20
0.115688
 30
0
  0
VERTEX
  8
72_ARTEK_AKFURNITURE_D2_CH_SEA
 10
0.586864
 20
0.134166
 30
0
  0
VERTEX
  8
72_ARTEK_AKFURNITURE_D2_CH_SEA
 10
0.586863
 20
0.14353
 30
0
  0
VERTEX
  8
72_ARTEK_AKFURNITURE_D2_CH_SEA
 10
0.58686
 20
0.148833
 30
0
  0
VERTEX
  8
72_ARTEK_AKFURNITURE_D2_CH_SEA
 10
0.586805
 20
0.149612
 30
0
  0
VERTEX
  8
72_ARTEK_AKFURNITURE_D2_CH_SEA
 10
0.586578
 20
0.148403
 30
0
  0
VERTEX
  8
72_ARTEK_AKFURNITURE_D2_CH_SEA
 10
0.586208
 20
0.146572
 30
0
  0
VERTEX
  8
72_ARTEK_AKFURNITURE_D2_CH_SEA
 10
0.585517
 20
0.144469
 30
0
  0
VERTEX
  8
72_ARTEK_AKFURNITURE_D2_CH_SEA
 10
0.580669
 20
0.140769
 30
0
  0
VERTEX
  8
72_ARTEK_AKFURNITURE_D2_CH_SEA
 10
0.577226
 20
0.139745
 30
0
  0
VERTEX
  8
72_ARTEK_AKFURNITURE_D2_CH_SEA
 10
0.572601
 20
0.13893
 30
0
  0
VERTEX
  8
72_ARTEK_AKFURNITURE_D2_CH_SEA
 10
0.56556
 20
0.138424
 30
0
  0
VERTEX
  8
72_ARTEK_AKFURNITURE_D2_CH_SEA
 10
0.560549
 20
0.138385
 30
0
  0
VERTEX
  8
72_ARTEK_AKFURNITURE_D2_CH_SEA
 10
0.557573
 20
0.138376
 30
0
  0
VERTEX
  8
72_ARTEK_AKFURNITURE_D2_CH_SEA
 10
0.552875
 20
0.138342
 30
0
  0
VERTEX
  8
72_ARTEK_AKFURNITURE_D2_CH_SEA
 10
0.547703
 20
0.1383
 30
0
  0
VERTEX
  8
72_ARTEK_AKFURNITURE_D2_CH_SEA
 10
0.541492
 20
0.138244
 30
0
  0
VERTEX
  8
72_ARTEK_AKFURNITURE_D2_CH_SEA
 10
0.531831
 20
0.138135
 30
0
  0
VERTEX
  8
72_ARTEK_AKFURNITURE_D2_CH_SEA
 10
0.521079
 20
0.138011
 30
0
  0
VERTEX
  8
72_ARTEK_AKFURNITURE_D2_CH_SEA
 10
0.509878
 20
0.137883
 30
0
  0
VERTEX
  8
72_ARTEK_AKFURNITURE_D2_CH_SEA
 10
0.496821
 20
0.137742
 30
0
  0
VERTEX
  8
72_ARTEK_AKFURNITURE_D2_CH_SEA
 10
0.488163
 20
0.137655
 30
0
  0
VERTEX
  8
72_ARTEK_AKFURNITURE_D2_CH_SEA
 10
0.477287
 20
0.137551
 30
0
  0
VERTEX
  8
72_ARTEK_AKFURNITURE_D2_CH_SEA
 10
0.45075
 20
0.137318
 30
0
  0
VERTEX
  8
72_ARTEK_AKFURNITURE_D2_CH_SEA
 10
0.396585
 20
0.136999
 30
0
  0
VERTEX
  8
72_ARTEK_AKFURNITURE_D2_CH_SEA
 10
0.383091
 20
0.136954
 30
0
  0
VERTEX
  8
72_ARTEK_AKFURNITURE_D2_CH_SEA
 10
0.371307
 20
0.136919
 30
0
  0
VERTEX
  8
72_ARTEK_AKFURNITURE_D2_CH_SEA
 10
0.362056
 20
0.136896
 30
0
  0
VERTEX
  8
72_ARTEK_AKFURNITURE_D2_CH_SEA
 10
0.355305
 20
0.136883
 30
0
  0
VERTEX
  8
72_ARTEK_AKFURNITURE_D2_CH_SEA
 10
0.342249
 20
0.136871
 30
0
  0
VERTEX
  8
72_ARTEK_AKFURNITURE_D2_CH_SEA
 10
0.334771
 20
0.136869
 30
0
  0
VERTEX
  8
72_ARTEK_AKFURNITURE_D2_CH_SEA
 10
0.325919
 20
0.136867
 30
0
  0
VERTEX
  8
72_ARTEK_AKFURNITURE_D2_CH_SEA
 10
0.315163
 20
0.136867
 30
0
  0
VERTEX
  8
72_ARTEK_AKFURNITURE_D2_CH_SEA
 10
0.302507
 20
0.136866
 30
0
  0
VERTEX
  8
72_ARTEK_AKFURNITURE_D2_CH_SEA
 10
0.289987
 20
0.136867
 30
0
  0
VERTEX
  8
72_ARTEK_AKFURNITURE_D2_CH_SEA
 10
0.27937
 20
0.136867
 30
0
  0
VERTEX
  8
72_ARTEK_AKFURNITURE_D2_CH_SEA
 10
0.270657
 20
0.136869
 30
0
  0
VERTEX
  8
72_ARTEK_AKFURNITURE_D2_CH_SEA
 10
0.26323
 20
0.136871
 30
0
  0
VERTEX
  8
72_ARTEK_AKFURNITURE_D2_CH_SEA
 10
0.250265
 20
0.136884
 30
0
  0
VERTEX
  8
72_ARTEK_AKFURNITURE_D2_CH_SEA
 10
0.243354
 20
0.136897
 30
0
  0
VERTEX
  8
72_ARTEK_AKFURNITURE_D2_CH_SEA
 10
0.233918
 20
0.136922
 30
0
  0
VERTEX
  8
72_ARTEK_AKFURNITURE_D2_CH_SEA
 10
0.221948
 20
0.136956
 30
0
  0
VERTEX
  8
72_ARTEK_AKFURNITURE_D2_CH_SEA
 10
0.208426
 20
0.137003
 30
0
  0
VERTEX
  8
72_ARTEK_AKFURNITURE_D2_CH_SEA
 10
0.15426
 20
0.137325
 30
0
  0
VERTEX
  8
72_ARTEK_AKFURNITURE_D2_CH_SEA
 10
0.127843
 20
0.137559
 30
0
  0
VERTEX
  8
72_ARTEK_AKFURNITURE_D2_CH_SEA
 10
0.117129
 20
0.137662
 30
0
  0
VERTEX
  8
72_ARTEK_AKFURNITURE_D2_CH_SEA
 10
0.108633
 20
0.137747
 30
0
  0
VERTEX
  8
72_ARTEK_AKFURNITURE_D2_CH_SEA
 10
0.095684
 20
0.137888
 30
0
  0
VERTEX
  8
72_ARTEK_AKFURNITURE_D2_CH_SEA
 10
0.0845282
 20
0.138015
 30
0
  0
VERTEX
  8
72_ARTEK_AKFURNITURE_D2_CH_SEA
 10
0.0737767
 20
0.13814
 30
0
  0
VERTEX
  8
72_ARTEK_AKFURNITURE_D2_CH_SEA
 10
0.0642208
 20
0.138246
 30
0
  0
VERTEX
  8
72_ARTEK_AKFURNITURE_D2_CH_SEA
 10
0.058108
 20
0.138302
 30
0
  0
VERTEX
  8
72_ARTEK_AKFURNITURE_D2_CH_SEA
 10
0.0529362
 20
0.138343
 30
0
  0
VERTEX
  8
72_ARTEK_AKFURNITURE_D2_CH_SEA
 10
0.0482872
 20
0.138377
 30
0
  0
VERTEX
  8
72_ARTEK_AKFURNITURE_D2_CH_SEA
 10
0.0453635
 20
0.138385
 30
0
  0
VERTEX
  8
72_ARTEK_AKFURNITURE_D2_CH_SEA
 10
0.0403249
 20
0.138429
 30
0
  0
VERTEX
  8
72_ARTEK_AKFURNITURE_D2_CH_SEA
 10
0.0332951
 20
0.138942
 30
0
  0
VERTEX
  8
72_ARTEK_AKFURNITURE_D2_CH_SEA
 10
0.0287007
 20
0.139763
 30
0
  0
VERTEX
  8
72_ARTEK_AKFURNITURE_D2_CH_SEA
 10
0.0226754
 20
0.142138
 30
0
  0
VERTEX
  8
72_ARTEK_AKFURNITURE_D2_CH_SEA
 10
0.0204692
 20
0.144499
 30
0
  0
VERTEX
  8
72_ARTEK_AKFURNITURE_D2_CH_SEA
 10
0.0201845
 20
0.145161
 30
0
  0
VERTEX
  8
72_ARTEK_AKFURNITURE_D2_CH_SEA
 10
0.0194143
 20
0.148442
 30
0
  0
VERTEX
  8
72_ARTEK_AKFURNITURE_D2_CH_SEA
 10
0.0191862
 20
0.149661
 30
0
  0
VERTEX
  8
72_ARTEK_AKFURNITURE_D2_CH_SEA
 10
0.0191401
 20
0.148782
 30
0
  0
VERTEX
  8
72_ARTEK_AKFURNITURE_D2_CH_SEA
 10
0.019138
 20
0.146059
 30
0
  0
VERTEX
  8
72_ARTEK_AKFURNITURE_D2_CH_SEA
 10
0.0191359
 20
0.136433
 30
0
  0
VERTEX
  8
72_ARTEK_AKFURNITURE_D2_CH_SEA
 10
0.0191359
 20
0.117955
 30
0
  0
VERTEX
  8
72_ARTEK_AKFURNITURE_D2_CH_SEA
 10
0.0191359
 20
0.0440422
 30
0
  0
VERTEX
  8
72_ARTEK_AKFURNITURE_D2_CH_SEA
 10
0.0191359
 20
-0.103784
 30
0
  0
VERTEX
  8
72_ARTEK_AKFURNITURE_D2_CH_SEA
 10
0.0191359
 20
-0.25161
 30
0
  0
VERTEX
  8
72_ARTEK_AKFURNITURE_D2_CH_SEA
 10
0.0191359
 20
-0.325523
 30
0
  0
VERTEX
  8
72_ARTEK_AKFURNITURE_D2_CH_SEA
 10
0.0191359
 20
-0.334762
 30
0
  0
VERTEX
  8
72_ARTEK_AKFURNITURE_D2_CH_SEA
 10
0.0191514
 20
-0.341828
 30
0
  0
VERTEX
  8
72_ARTEK_AKFURNITURE_D2_CH_SEA
 10
0.0200525
 20
-0.345493
 30
0
  0
VERTEX
  8
72_ARTEK_AKFURNITURE_D2_CH_SEA
 10
0.0202625
 20
-0.346848
 30
0
  0
VERTEX
  8
72_ARTEK_AKFURNITURE_D2_CH_SEA
 10
0.0215506
 20
-0.348378
 30
0
  0
VERTEX
  8
72_ARTEK_AKFURNITURE_D2_CH_SEA
 10
0.0242579
 20
-0.35015
 30
0
  0
VERTEX
  8
72_ARTEK_AKFURNITURE_D2_CH_SEA
 10
0.028107
 20
-0.351574
 30
0
  0
VERTEX
  8
72_ARTEK_AKFURNITURE_D2_CH_SEA
 10
0.0339908
 20
-0.352775
 30
0
  0
VERTEX
  8
72_ARTEK_AKFURNITURE_D2_CH_SEA
 10
0.0401409
 20
-0.353444
 30
0
  0
VERTEX
  8
72_ARTEK_AKFURNITURE_D2_CH_SEA
 10
0.0449967
 20
-0.353792
 30
0
  0
VERTEX
  8
72_ARTEK_AKFURNITURE_D2_CH_SEA
 10
0.0486544
 20
-0.35395
 30
0
  0
VERTEX
  8
72_ARTEK_AKFURNITURE_D2_CH_SEA
 10
0.0555858
 20
-0.35408
 30
0
  0
VERTEX
  8
72_ARTEK_AKFURNITURE_D2_CH_SEA
 10
0.0757543
 20
-0.354259
 30
0
  0
VERTEX
  8
72_ARTEK_AKFURNITURE_D2_CH_SEA
 10
0.0893247
 20
-0.354296
 30
0
  0
VERTEX
  8
72_ARTEK_AKFURNITURE_D2_CH_SEA
 10
0.105166
 20
-0.354317
 30
0
  0
VERTEX
  8
72_ARTEK_AKFURNITURE_D2_CH_SEA
 10
0.113358
 20
-0.354319
 30
0
  0
VERTEX
  8
72_ARTEK_AKFURNITURE_D2_CH_SEA
 10
0.117455
 20
-0.35432
 30
0
  0
VERTEX
  8
72_ARTEK_AKFURNITURE_D2_CH_SEA
 10
0.118918
 20
-0.35432
 30
0
  0
VERTEX
  8
72_ARTEK_AKFURNITURE_D2_CH_SEA
 10
0.122411
 20
-0.354322
 30
0
  0
VERTEX
  8
72_ARTEK_AKFURNITURE_D2_CH_SEA
 10
0.128081
 20
-0.354324
 30
0
  0
VERTEX
  8
72_ARTEK_AKFURNITURE_D2_CH_SEA
 10
0.135926
 20
-0.354328
 30
0
  0
VERTEX
  8
72_ARTEK_AKFURNITURE_D2_CH_SEA
 10
0.153383
 20
-0.354337
 30
0
  0
VERTEX
  8
72_ARTEK_AKFURNITURE_D2_CH_SEA
 10
0.166628
 20
-0.354346
 30
0
  0
VERTEX
  8
72_ARTEK_AKFURNITURE_D2_CH_SEA
 10
0.187839
 20
-0.354362
 30
0
  0
VERTEX
  8
72_ARTEK_AKFURNITURE_D2_CH_SEA
 10
0.230209
 20
-0.354391
 30
0
  0
SEQEND
  0
POLYLINE
  8
72_ARTEK_AKFURNITURE_D2SNAP
 66
     1
 70
     0
 10
0.0
 20
0.0
 30
0.0
  0
VERTEX
  8
72_ARTEK_AKFURNITURE_D2SNAP
 10
0.3155
 20
-0
 30
0
  0
VERTEX
  8
72_ARTEK_AKFURNITURE_D2SNAP
 10
0.31526
 20
0.00243863
 30
0
  0
VERTEX
  8
72_ARTEK_AKFURNITURE_D2SNAP
 10
0.314548
 20
0.00478354
 30
0
  0
VERTEX
  8
72_ARTEK_AKFURNITURE_D2SNAP
 10
0.313393
 20
0.00694463
 30
0
  0
VERTEX
  8
72_ARTEK_AKFURNITURE_D2SNAP
 10
0.311839
 20
0.00883883
 30
0
  0
VERTEX
  8
72_ARTEK_AKFURNITURE_D2SNAP
 10
0.309945
 20
0.0103934
 30
0
  0
VERTEX
  8
72_ARTEK_AKFURNITURE_D2SNAP
 10
0.307784
 20
0.0115485
 30
0
  0
VERTEX
  8
72_ARTEK_AKFURNITURE_D2SNAP
 10
0.305439
 20
0.0122598
 30
0
  0
VERTEX
  8
72_ARTEK_AKFURNITURE_D2SNAP
 10
0.303
 20
0.0125
 30
0
  0
VERTEX
  8
72_ARTEK_AKFURNITURE_D2SNAP
 10
0.300561
 20
0.0122598
 30
0
  0
VERTEX
  8
72_ARTEK_AKFURNITURE_D2SNAP
 10
0.298216
 20
0.0115485
 30
0
  0
VERTEX
  8
72_ARTEK_AKFURNITURE_D2SNAP
 10
0.296055
 20
0.0103934
 30
0
  0
VERTEX
  8
72_ARTEK_AKFURNITURE_D2SNAP
 10
0.294161
 20
0.00883883
 30
0
  0
VERTEX
  8
72_ARTEK_AKFURNITURE_D2SNAP
 10
0.292607
 20
0.00694463
 30
0
  0
VERTEX
  8
72_ARTEK_AKFURNITURE_D2SNAP
 10
0.291452
 20
0.00478354
 30
0
  0
VERTEX
  8
72_ARTEK_AKFURNITURE_D2SNAP
 10
0.29074
 20
0.00243863
 30
0
  0
VERTEX
  8
72_ARTEK_AKFURNITURE_D2SNAP
 10
0.2905
 20
3.15316e-018
 30
0
  0
VERTEX
  8
72_ARTEK_AKFURNITURE_D2SNAP
 10
0.29074
 20
-0.00243863
 30
0
  0
VERTEX
  8
72_ARTEK_AKFURNITURE_D2SNAP
 10
0.291452
 20
-0.00478354
 30
0
  0
VERTEX
  8
72_ARTEK_AKFURNITURE_D2SNAP
 10
0.292607
 20
-0.00694463
 30
0
  0
VERTEX
  8
72_ARTEK_AKFURNITURE_D2SNAP
 10
0.294161
 20
-0.00883883
 30
0
  0
VERTEX
  8
72_ARTEK_AKFURNITURE_D2SNAP
 10
0.296055
 20
-0.0103934
 30
0
  0
VERTEX
  8
72_ARTEK_AKFURNITURE_D2SNAP
 10
0.298216
 20
-0.0115485
 30
0
  0
VERTEX
  8
72_ARTEK_AKFURNITURE_D2SNAP
 10
0.300561
 20
-0.0122598
 30
0
  0
VERTEX
  8
72_ARTEK_AKFURNITURE_D2SNAP
 10
0.303
 20
-0.0125
 30
0
  0
VERTEX
  8
72_ARTEK_AKFURNITURE_D2SNAP
 10
0.305439
 20
-0.0122598
 30
0
  0
VERTEX
  8
72_ARTEK_AKFURNITURE_D2SNAP
 10
0.307784
 20
-0.0115485
 30
0
  0
VERTEX
  8
72_ARTEK_AKFURNITURE_D2SNAP
 10
0.309945
 20
-0.0103934
 30
0
  0
VERTEX
  8
72_ARTEK_AKFURNITURE_D2SNAP
 10
0.311839
 20
-0.00883883
 30
0
  0
VERTEX
  8
72_ARTEK_AKFURNITURE_D2SNAP
 10
0.313393
 20
-0.00694463
 30
0
  0
VERTEX
  8
72_ARTEK_AKFURNITURE_D2SNAP
 10
0.314548
 20
-0.00478354
 30
0
  0
VERTEX
  8
72_ARTEK_AKFURNITURE_D2SNAP
 10
0.31526
 20
-0.00243863
 30
0
  0
VERTEX
  8
72_ARTEK_AKFURNITURE_D2SNAP
 10
0.3155
 20
-0
 30
0
  0
SEQEND
  0
POLYLINE
  8
72_ARTEK_AKFURNITURE_D2SNAP
 66
     1
 70
     0
 10
0.0
 20
0.0
 30
0.0
  0
VERTEX
  8
72_ARTEK_AKFURNITURE_D2SNAP
 10
0.285322
 20
-0.0176777
 30
0
  0
VERTEX
  8
72_ARTEK_AKFURNITURE_D2SNAP
 10
0.320678
 20
0.0176777
 30
0
  0
SEQEND
  0
POLYLINE
  8
72_ARTEK_AKFURNITURE_D2SNAP
 66
     1
 70
     0
 10
0.0
 20
0.0
 30
0.0
  0
VERTEX
  8
72_ARTEK_AKFURNITURE_D2SNAP
 10
0.285322
 20
0.0176777
 30
0
  0
VERTEX
  8
72_ARTEK_AKFURNITURE_D2SNAP
 10
0.320678
 20
-0.0176777
 30
0
  0
SEQEND
  0
POLYLINE
  8
72_ARTEK_AKFURNITURE_D2_CH_BAC
 66
     1
 70
     0
 10
0.0
 20
0.0
 30
0.0
  0
VERTEX
  8
72_ARTEK_AKFURNITURE_D2_CH_BAC
 10
0.303
 20
0.242158
 30
0
  0
VERTEX
  8
72_ARTEK_AKFURNITURE_D2_CH_BAC
 10
0.312648
 20
0.242162
 30
0
  0
VERTEX
  8
72_ARTEK_AKFURNITURE_D2_CH_BAC
 10
0.324139
 20
0.242172
 30
0
  0
VERTEX
  8
72_ARTEK_AKFURNITURE_D2_CH_BAC
 10
0.337473
 20
0.242189
 30
0
  0
VERTEX
  8
72_ARTEK_AKFURNITURE_D2_CH_BAC
 10
0.352649
 20
0.242213
 30
0
  0
VERTEX
  8
72_ARTEK_AKFURNITURE_D2_CH_BAC
 10
0.421967
 20
0.242448
 30
0
  0
VERTEX
  8
72_ARTEK_AKFURNITURE_D2_CH_BAC
 10
0.456592
 20
0.242683
 30
0
  0
VERTEX
  8
72_ARTEK_AKFURNITURE_D2_CH_BAC
 10
0.471958
 20
0.242802
 30
0
  0
VERTEX
  8
72_ARTEK_AKFURNITURE_D2_CH_BAC
 10
0.485291
 20
0.242911
 30
0
  0
VERTEX
  8
72_ARTEK_AKFURNITURE_D2_CH_BAC
 10
0.496592
 20
0.243011
 30
0
  0
VERTEX
  8
72_ARTEK_AKFURNITURE_D2_CH_BAC
 10
0.50586
 20
0.243102
 30
0
  0
VERTEX
  8
72_ARTEK_AKFURNITURE_D2_CH_BAC
 10
0.520647
 20
0.243259
 30
0
  0
VERTEX
  8
72_ARTEK_AKFURNITURE_D2_CH_BAC
 10
0.533124
 20
0.243388
 30
0
  0
VERTEX
  8
72_ARTEK_AKFURNITURE_D2_CH_BAC
 10
0.543414
 20
0.24349
 30
0
  0
VERTEX
  8
72_ARTEK_AKFURNITURE_D2_CH_BAC
 10
0.552001
 20
0.243559
 30
0
  0
VERTEX
  8
72_ARTEK_AKFURNITURE_D2_CH_BAC
 10
0.558951
 20
0.243597
 30
0
  0
VERTEX
  8
72_ARTEK_AKFURNITURE_D2_CH_BAC
 10
0.563819
 20
0.243641
 30
0
  0
VERTEX
  8
72_ARTEK_AKFURNITURE_D2_CH_BAC
 10
0.566361
 20
0.243713
 30
0
  0
VERTEX
  8
72_ARTEK_AKFURNITURE_D2_CH_BAC
 10
0.568198
 20
0.243896
 30
0
  0
VERTEX
  8
72_ARTEK_AKFURNITURE_D2_CH_BAC
 10
0.57484
 20
0.244854
 30
0
  0
VERTEX
  8
72_ARTEK_AKFURNITURE_D2_CH_BAC
 10
0.579938
 20
0.24628
 30
0
  0
VERTEX
  8
72_ARTEK_AKFURNITURE_D2_CH_BAC
 10
0.585042
 20
0.249517
 30
0
  0
VERTEX
  8
72_ARTEK_AKFURNITURE_D2_CH_BAC
 10
0.586225
 20
0.251448
 30
0
  0
VERTEX
  8
72_ARTEK_AKFURNITURE_D2_CH_BAC
 10
0.586948
 20
0.254566
 30
0
  0
VERTEX
  8
72_ARTEK_AKFURNITURE_D2_CH_BAC
 10
0.587
 20
0.304785
 30
0
  0
VERTEX
  8
72_ARTEK_AKFURNITURE_D2_CH_BAC
 10
0.587
 20
0.329912
 30
0
  0
VERTEX
  8
72_ARTEK_AKFURNITURE_D2_CH_BAC
 10
0.586442
 20
0.342483
 30
0
  0
VERTEX
  8
72_ARTEK_AKFURNITURE_D2_CH_BAC
 10
0.585919
 20
0.34406
 30
0
  0
VERTEX
  8
72_ARTEK_AKFURNITURE_D2_CH_BAC
 10
0.585918
 20
0.344607
 30
0
  0
VERTEX
  8
72_ARTEK_AKFURNITURE_D2_CH_BAC
 10
0.585592
 20
0.346093
 30
0
  0
VERTEX
  8
72_ARTEK_AKFURNITURE_D2_CH_BAC
 10
0.581545
 20
0.349408
 30
0
  0
VERTEX
  8
72_ARTEK_AKFURNITURE_D2_CH_BAC
 10
0.577809
 20
0.350852
 30
0
  0
VERTEX
  8
72_ARTEK_AKFURNITURE_D2_CH_BAC
 10
0.573522
 20
0.35187
 30
0
  0
VERTEX
  8
72_ARTEK_AKFURNITURE_D2_CH_BAC
 10
0.570265
 20
0.352357
 30
0
  0
VERTEX
  8
72_ARTEK_AKFURNITURE_D2_CH_BAC
 10
0.566931
 20
0.352739
 30
0
  0
VERTEX
  8
72_ARTEK_AKFURNITURE_D2_CH_BAC
 10
0.562136
 20
0.352889
 30
0
  0
VERTEX
  8
72_ARTEK_AKFURNITURE_D2_CH_BAC
 10
0.559122
 20
0.352891
 30
0
  0
VERTEX
  8
72_ARTEK_AKFURNITURE_D2_CH_BAC
 10
0.554081
 20
0.352923
 30
0
  0
VERTEX
  8
72_ARTEK_AKFURNITURE_D2_CH_BAC
 10
0.547791
 20
0.352973
 30
0
  0
VERTEX
  8
72_ARTEK_AKFURNITURE_D2_CH_BAC
 10
0.544428
 20
0.353001
 30
0
  0
VERTEX
  8
72_ARTEK_AKFURNITURE_D2_CH_BAC
 10
0.539839
 20
0.353047
 30
0
  0
VERTEX
  8
72_ARTEK_AKFURNITURE_D2_CH_BAC
 10
0.533895
 20
0.353113
 30
0
  0
VERTEX
  8
72_ARTEK_AKFURNITURE_D2_CH_BAC
 10
0.525526
 20
0.353207
 30
0
  0
VERTEX
  8
72_ARTEK_AKFURNITURE_D2_CH_BAC
 10
0.513875
 20
0.353337
 30
0
  0
VERTEX
  8
72_ARTEK_AKFURNITURE_D2_CH_BAC
 10
0.499335
 20
0.353495
 30
0
  0
VERTEX
  8
72_ARTEK_AKFURNITURE_D2_CH_BAC
 10
0.467696
 20
0.353804
 30
0
  0
VERTEX
  8
72_ARTEK_AKFURNITURE_D2_CH_BAC
 10
0.434757
 20
0.354065
 30
0
  0
VERTEX
  8
72_ARTEK_AKFURNITURE_D2_CH_BAC
 10
0.303
 20
0.354404
 30
0
  0
VERTEX
  8
72_ARTEK_AKFURNITURE_D2_CH_BAC
 10
0.171243
 20
0.354065
 30
0
  0
VERTEX
  8
72_ARTEK_AKFURNITURE_D2_CH_BAC
 10
0.138304
 20
0.353804
 30
0
  0
VERTEX
  8
72_ARTEK_AKFURNITURE_D2_CH_BAC
 10
0.106665
 20
0.353495
 30
0
  0
VERTEX
  8
72_ARTEK_AKFURNITURE_D2_CH_BAC
 10
0.0921245
 20
0.353337
 30
0
  0
VERTEX
  8
72_ARTEK_AKFURNITURE_D2_CH_BAC
 10
0.0804741
 20
0.353207
 30
0
  0
VERTEX
  8
72_ARTEK_AKFURNITURE_D2_CH_BAC
 10
0.0721048
 20
0.353113
 30
0
  0
VERTEX
  8
72_ARTEK_AKFURNITURE_D2_CH_BAC
 10
0.0661609
 20
0.353047
 30
0
  0
VERTEX
  8
72_ARTEK_AKFURNITURE_D2_CH_BAC
 10
0.0615722
 20
0.353001
 30
0
  0
VERTEX
  8
72_ARTEK_AKFURNITURE_D2_CH_BAC
 10
0.0582092
 20
0.352973
 30
0
  0
VERTEX
  8
72_ARTEK_AKFURNITURE_D2_CH_BAC
 10
0.0519189
 20
0.352923
 30
0
  0
VERTEX
  8
72_ARTEK_AKFURNITURE_D2_CH_BAC
 10
0.046878
 20
0.352891
 30
0
  0
VERTEX
  8
72_ARTEK_AKFURNITURE_D2_CH_BAC
 10
0.0438643
 20
0.352889
 30
0
  0
VERTEX
  8
72_ARTEK_AKFURNITURE_D2_CH_BAC
 10
0.0390691
 20
0.352739
 30
0
  0
VERTEX
  8
72_ARTEK_AKFURNITURE_D2_CH_BAC
 10
0.0357354
 20
0.352357
 30
0
  0
VERTEX
  8
72_ARTEK_AKFURNITURE_D2_CH_BAC
 10
0.0324785
 20
0.35187
 30
0
  0
VERTEX
  8
72_ARTEK_AKFURNITURE_D2_CH_BAC
 10
0.0281909
 20
0.350852
 30
0
  0
VERTEX
  8
72_ARTEK_AKFURNITURE_D2_CH_BAC
 10
0.0244547
 20
0.349408
 30
0
  0
VERTEX
  8
72_ARTEK_AKFURNITURE_D2_CH_BAC
 10
0.0204082
 20
0.346093
 30
0
  0
VERTEX
  8
72_ARTEK_AKFURNITURE_D2_CH_BAC
 10
0.0200816
 20
0.344607
 30
0
  0
VERTEX
  8
72_ARTEK_AKFURNITURE_D2_CH_BAC
 10
0.0200806
 20
0.34406
 30
0
  0
VERTEX
  8
72_ARTEK_AKFURNITURE_D2_CH_BAC
 10
0.0195584
 20
0.342483
 30
0
  0
VERTEX
  8
72_ARTEK_AKFURNITURE_D2_CH_BAC
 10
0.019
 20
0.329912
 30
0
  0
VERTEX
  8
72_ARTEK_AKFURNITURE_D2_CH_BAC
 10
0.019
 20
0.304785
 30
0
  0
VERTEX
  8
72_ARTEK_AKFURNITURE_D2_CH_BAC
 10
0.0190519
 20
0.254566
 30
0
  0
VERTEX
  8
72_ARTEK_AKFURNITURE_D2_CH_BAC
 10
0.0197749
 20
0.251448
 30
0
  0
VERTEX
  8
72_ARTEK_AKFURNITURE_D2_CH_BAC
 10
0.0209575
 20
0.249517
 30
0
  0
VERTEX
  8
72_ARTEK_AKFURNITURE_D2_CH_BAC
 10
0.026062
 20
0.24628
 30
0
  0
VERTEX
  8
72_ARTEK_AKFURNITURE_D2_CH_BAC
 10
0.0311597
 20
0.244854
 30
0
  0
VERTEX
  8
72_ARTEK_AKFURNITURE_D2_CH_BAC
 10
0.0378021
 20
0.243896
 30
0
  0
VERTEX
  8
72_ARTEK_AKFURNITURE_D2_CH_BAC
 10
0.0396388
 20
0.243713
 30
0
  0
VERTEX
  8
72_ARTEK_AKFURNITURE_D2_CH_BAC
 10
0.0421807
 20
0.243641
 30
0
  0
VERTEX
  8
72_ARTEK_AKFURNITURE_D2_CH_BAC
 10
0.0470495
 20
0.243597
 30
0
  0
VERTEX
  8
72_ARTEK_AKFURNITURE_D2_CH_BAC
 10
0.0539987
 20
0.243559
 30
0
  0
VERTEX
  8
72_ARTEK_AKFURNITURE_D2_CH_BAC
 10
0.0625863
 20
0.24349
 30
0
  0
VERTEX
  8
72_ARTEK_AKFURNITURE_D2_CH_BAC
 10
0.0728759
 20
0.243388
 30
0
  0
VERTEX
  8
72_ARTEK_AKFURNITURE_D2_CH_BAC
 10
0.085353
 20
0.243259
 30
0
  0
VERTEX
  8
72_ARTEK_AKFURNITURE_D2_CH_BAC
 10
0.10014
 20
0.243102
 30
0
  0
VERTEX
  8
72_ARTEK_AKFURNITURE_D2_CH_BAC
 10
0.109408
 20
0.243011
 30
0
  0
VERTEX
  8
72_ARTEK_AKFURNITURE_D2_CH_BAC
 10
0.120709
 20
0.242911
 30
0
  0
VERTEX
  8
72_ARTEK_AKFURNITURE_D2_CH_BAC
 10
0.134042
 20
0.242802
 30
0
  0
VERTEX
  8
72_ARTEK_AKFURNITURE_D2_CH_BAC
 10
0.149408
 20
0.242683
 30
0
  0
VERTEX
  8
72_ARTEK_AKFURNITURE_D2_CH_BAC
 10
0.184033
 20
0.242448
 30
0
  0
VERTEX
  8
72_ARTEK_AKFURNITURE_D2_CH_BAC
 10
0.253351
 20
0.242213
 30
0
  0
VERTEX
  8
72_ARTEK_AKFURNITURE_D2_CH_BAC
 10
0.268527
 20
0.242189
 30
0
  0
VERTEX
  8
72_ARTEK_AKFURNITURE_D2_CH_BAC
 10
0.281861
 20
0.242172
 30
0
  0
VERTEX
  8
72_ARTEK_AKFURNITURE_D2_CH_BAC
 10
0.293352
 20
0.242162
 30
0
  0
VERTEX
  8
72_ARTEK_AKFURNITURE_D2_CH_BAC
 10
0.303
 20
0.242158
 30
0
  0
SEQEND
  0
POLYLINE
  8
72_ARTEK_AKFURNITURE_D2_CH_BAC
 66
     1
 70
     0
 10
0.0
 20
0.0
 30
0.0
  0
VERTEX
  8
72_ARTEK_AKFURNITURE_D2_CH_BAC
 10
0.0202222
 20
0.145033
 30
0
  0
VERTEX
  8
72_ARTEK_AKFURNITURE_D2_CH_BAC
 10
0.0208795
 20
0.143821
 30
0
  0
VERTEX
  8
72_ARTEK_AKFURNITURE_D2_CH_BAC
 10
0.0236606
 20
0.14153
 30
0
  0
VERTEX
  8
72_ARTEK_AKFURNITURE_D2_CH_BAC
 10
0.0263234
 20
0.140427
 30
0
  0
VERTEX
  8
72_ARTEK_AKFURNITURE_D2_CH_BAC
 10
0.0301596
 20
0.139436
 30
0
  0
VERTEX
  8
72_ARTEK_AKFURNITURE_D2_CH_BAC
 10
0.0355086
 20
0.138726
 30
0
  0
VERTEX
  8
72_ARTEK_AKFURNITURE_D2_CH_BAC
 10
0.0422602
 20
0.138385
 30
0
  0
VERTEX
  8
72_ARTEK_AKFURNITURE_D2_CH_BAC
 10
0.0472303
 20
0.138382
 30
0
  0
VERTEX
  8
72_ARTEK_AKFURNITURE_D2_CH_BAC
 10
0.0565635
 20
0.138314
 30
0
  0
VERTEX
  8
72_ARTEK_AKFURNITURE_D2_CH_BAC
 10
0.0620629
 20
0.138268
 30
0
  0
VERTEX
  8
72_ARTEK_AKFURNITURE_D2_CH_BAC
 10
0.0706086
 20
0.138176
 30
0
  0
VERTEX
  8
72_ARTEK_AKFURNITURE_D2_CH_BAC
 10
0.0922393
 20
0.137927
 30
0
  0
VERTEX
  8
72_ARTEK_AKFURNITURE_D2_CH_BAC
 10
0.104596
 20
0.13779
 30
0
  0
VERTEX
  8
72_ARTEK_AKFURNITURE_D2_CH_BAC
 10
0.111883
 20
0.137714
 30
0
  0
VERTEX
  8
72_ARTEK_AKFURNITURE_D2_CH_BAC
 10
0.121309
 20
0.137621
 30
0
  0
VERTEX
  8
72_ARTEK_AKFURNITURE_D2_CH_BAC
 10
0.132957
 20
0.137511
 30
0
  0
VERTEX
  8
72_ARTEK_AKFURNITURE_D2_CH_BAC
 10
0.14637
 20
0.13739
 30
0
  0
VERTEX
  8
72_ARTEK_AKFURNITURE_D2_CH_BAC
 10
0.173481
 20
0.137186
 30
0
  0
VERTEX
  8
72_ARTEK_AKFURNITURE_D2_CH_BAC
 10
0.227328
 20
0.13694
 30
0
  0
VERTEX
  8
72_ARTEK_AKFURNITURE_D2_CH_BAC
 10
0.238234
 20
0.13691
 30
0
  0
VERTEX
  8
72_ARTEK_AKFURNITURE_D2_CH_BAC
 10
0.246603
 20
0.13689
 30
0
  0
VERTEX
  8
72_ARTEK_AKFURNITURE_D2_CH_BAC
 10
0.259263
 20
0.136874
 30
0
  0
VERTEX
  8
72_ARTEK_AKFURNITURE_D2_CH_BAC
 10
0.274169
 20
0.136868
 30
0
  0
VERTEX
  8
72_ARTEK_AKFURNITURE_D2_CH_BAC
 10
0.283711
 20
0.136867
 30
0
  0
VERTEX
  8
72_ARTEK_AKFURNITURE_D2_CH_BAC
 10
0.295161
 20
0.136867
 30
0
  0
VERTEX
  8
72_ARTEK_AKFURNITURE_D2_CH_BAC
 10
0.308219
 20
0.136866
 30
0
  0
VERTEX
  8
72_ARTEK_AKFURNITURE_D2_CH_BAC
 10
0.320065
 20
0.136867
 30
0
  0
VERTEX
  8
72_ARTEK_AKFURNITURE_D2_CH_BAC
 10
0.330004
 20
0.136868
 30
0
  0
VERTEX
  8
72_ARTEK_AKFURNITURE_D2_CH_BAC
 10
0.338112
 20
0.136869
 30
0
  0
VERTEX
  8
72_ARTEK_AKFURNITURE_D2_CH_BAC
 10
0.351892
 20
0.136879
 30
0
  0
VERTEX
  8
72_ARTEK_AKFURNITURE_D2_CH_BAC
 10
0.357976
 20
0.136888
 30
0
  0
VERTEX
  8
72_ARTEK_AKFURNITURE_D2_CH_BAC
 10
0.365817
 20
0.136905
 30
0
  0
VERTEX
  8
72_ARTEK_AKFURNITURE_D2_CH_BAC
 10
0.376195
 20
0.136933
 30
0
  0
VERTEX
  8
72_ARTEK_AKFURNITURE_D2_CH_BAC
 10
0.389034
 20
0.136972
 30
0
  0
VERTEX
  8
72_ARTEK_AKFURNITURE_D2_CH_BAC
 10
0.416145
 20
0.137089
 30
0
  0
VERTEX
  8
72_ARTEK_AKFURNITURE_D2_CH_BAC
 10
0.470342
 20
0.137486
 30
0
  0
VERTEX
  8
72_ARTEK_AKFURNITURE_D2_CH_BAC
 10
0.482452
 20
0.1376
 30
0
  0
VERTEX
  8
72_ARTEK_AKFURNITURE_D2_CH_BAC
 10
0.49234
 20
0.137696
 30
0
  0
VERTEX
  8
72_ARTEK_AKFURNITURE_D2_CH_BAC
 10
0.500014
 20
0.137775
 30
0
  0
VERTEX
  8
72_ARTEK_AKFURNITURE_D2_CH_BAC
 10
0.506517
 20
0.137846
 30
0
  0
VERTEX
  8
72_ARTEK_AKFURNITURE_D2_CH_BAC
 10
0.528911
 20
0.138102
 30
0
  0
VERTEX
  8
72_ARTEK_AKFURNITURE_D2_CH_BAC
 10
0.539214
 20
0.138219
 30
0
  0
VERTEX
  8
72_ARTEK_AKFURNITURE_D2_CH_BAC
 10
0.546309
 20
0.138289
 30
0
  0
VERTEX
  8
72_ARTEK_AKFURNITURE_D2_CH_BAC
 10
0.556477
 20
0.138369
 30
0
  0
VERTEX
  8
72_ARTEK_AKFURNITURE_D2_CH_BAC
 10
0.5623
 20
0.138385
 30
0
  0
VERTEX
  8
72_ARTEK_AKFURNITURE_D2_CH_BAC
 10
0.568161
 20
0.138559
 30
0
  0
VERTEX
  8
72_ARTEK_AKFURNITURE_D2_CH_BAC
 10
0.574467
 20
0.139188
 30
0
  0
VERTEX
  8
72_ARTEK_AKFURNITURE_D2_CH_BAC
 10
0.578642
 20
0.140117
 30
0
  0
VERTEX
  8
72_ARTEK_AKFURNITURE_D2_CH_BAC
 10
0.581631
 20
0.141166
 30
0
  0
VERTEX
  8
72_ARTEK_AKFURNITURE_D2_CH_BAC
 10
0.584456
 20
0.143041
 30
0
  0
VERTEX
  8
72_ARTEK_AKFURNITURE_D2_CH_BAC
 10
0.585727
 20
0.14492
 30
0
  0
VERTEX
  8
72_ARTEK_AKFURNITURE_D2_CH_BAC
 10
0.586338
 20
0.14722
 30
0
  0
VERTEX
  8
72_ARTEK_AKFURNITURE_D2_CH_BAC
 10
0.587
 20
0.15234
 30
0
  0
VERTEX
  8
72_ARTEK_AKFURNITURE_D2_CH_BAC
 10
0.587
 20
0.15915
 30
0
  0
VERTEX
  8
72_ARTEK_AKFURNITURE_D2_CH_BAC
 10
0.587
 20
0.172769
 30
0
  0
VERTEX
  8
72_ARTEK_AKFURNITURE_D2_CH_BAC
 10
0.587
 20
0.200006
 30
0
  0
VERTEX
  8
72_ARTEK_AKFURNITURE_D2_CH_BAC
 10
0.587
 20
0.254481
 30
0
  0
VERTEX
  8
72_ARTEK_AKFURNITURE_D2_CH_BAC
 10
0.585113
 20
0.2496
 30
0
  0
VERTEX
  8
72_ARTEK_AKFURNITURE_D2_CH_BAC
 10
0.582805
 20
0.247723
 30
0
  0
VERTEX
  8
72_ARTEK_AKFURNITURE_D2_CH_BAC
 10
0.57941
 20
0.246095
 30
0
  0
VERTEX
  8
72_ARTEK_AKFURNITURE_D2_CH_BAC
 10
0.573583
 20
0.244598
 30
0
  0
VERTEX
  8
72_ARTEK_AKFURNITURE_D2_CH_BAC
 10
0.565764
 20
0.243686
 30
0
  0
VERTEX
  8
72_ARTEK_AKFURNITURE_D2_CH_BAC
 10
0.562052
 20
0.243619
 30
0
  0
VERTEX
  8
72_ARTEK_AKFURNITURE_D2_CH_BAC
 10
0.555648
 20
0.243582
 30
0
  0
VERTEX
  8
72_ARTEK_AKFURNITURE_D2_CH_BAC
 10
0.547139
 20
0.243522
 30
0
  0
VERTEX
  8
72_ARTEK_AKFURNITURE_D2_CH_BAC
 10
0.536708
 20
0.243425
 30
0
  0
VERTEX
  8
72_ARTEK_AKFURNITURE_D2_CH_BAC
 10
0.523886
 20
0.243293
 30
0
  0
VERTEX
  8
72_ARTEK_AKFURNITURE_D2_CH_BAC
 10
0.508387
 20
0.243129
 30
0
  0
VERTEX
  8
72_ARTEK_AKFURNITURE_D2_CH_BAC
 10
0.498939
 20
0.243033
 30
0
  0
VERTEX
  8
72_ARTEK_AKFURNITURE_D2_CH_BAC
 10
0.48711
 20
0.242927
 30
0
  0
VERTEX
  8
72_ARTEK_AKFURNITURE_D2_CH_BAC
 10
0.472894
 20
0.242809
 30
0
  0
VERTEX
  8
72_ARTEK_AKFURNITURE_D2_CH_BAC
 10
0.456289
 20
0.24268
 30
0
  0
VERTEX
  8
72_ARTEK_AKFURNITURE_D2_CH_BAC
 10
0.38087
 20
0.242272
 30
0
  0
VERTEX
  8
72_ARTEK_AKFURNITURE_D2_CH_BAC
 10
0.361978
 20
0.242229
 30
0
  0
VERTEX
  8
72_ARTEK_AKFURNITURE_D2_CH_BAC
 10
0.344489
 20
0.242199
 30
0
  0
VERTEX
  8
72_ARTEK_AKFURNITURE_D2_CH_BAC
 10
0.329166
 20
0.242178
 30
0
  0
VERTEX
  8
72_ARTEK_AKFURNITURE_D2_CH_BAC
 10
0.316007
 20
0.242164
 30
0
  0
VERTEX
  8
72_ARTEK_AKFURNITURE_D2_CH_BAC
 10
0.294828
 20
0.242161
 30
0
  0
VERTEX
  8
72_ARTEK_AKFURNITURE_D2_CH_BAC
 10
0.28257
 20
0.242171
 30
0
  0
VERTEX
  8
72_ARTEK_AKFURNITURE_D2_CH_BAC
 10
0.268147
 20
0.242189
 30
0
  0
VERTEX
  8
72_ARTEK_AKFURNITURE_D2_CH_BAC
 10
0.251558
 20
0.242216
 30
0
  0
VERTEX
  8
72_ARTEK_AKFURNITURE_D2_CH_BAC
 10
0.232998
 20
0.242251
 30
0
  0
VERTEX
  8
72_ARTEK_AKFURNITURE_D2_CH_BAC
 10
0.195157
 20
0.24239
 30
0
  0
VERTEX
  8
72_ARTEK_AKFURNITURE_D2_CH_BAC
 10
0.15732
 20
0.242623
 30
0
  0
VERTEX
  8
72_ARTEK_AKFURNITURE_D2_CH_BAC
 10
0.139722
 20
0.242757
 30
0
  0
VERTEX
  8
72_ARTEK_AKFURNITURE_D2_CH_BAC
 10
0.124512
 20
0.242879
 30
0
  0
VERTEX
  8
72_ARTEK_AKFURNITURE_D2_CH_BAC
 10
0.11169
 20
0.24299
 30
0
  0
VERTEX
  8
72_ARTEK_AKFURNITURE_D2_CH_BAC
 10
0.101257
 20
0.24309
 30
0
  0
VERTEX
  8
72_ARTEK_AKFURNITURE_D2_CH_BAC
 10
0.0851166
 20
0.243261
 30
0
  0
VERTEX
  8
72_ARTEK_AKFURNITURE_D2_CH_BAC
 10
0.0717379
 20
0.2434
 30
0
  0
VERTEX
  8
72_ARTEK_AKFURNITURE_D2_CH_BAC
 10
0.060871
 20
0.243505
 30
0
  0
VERTEX
  8
72_ARTEK_AKFURNITURE_D2_CH_BAC
 10
0.0519636
 20
0.243572
 30
0
  0
VERTEX
  8
72_ARTEK_AKFURNITURE_D2_CH_BAC
 10
0.0450628
 20
0.243609
 30
0
  0
VERTEX
  8
72_ARTEK_AKFURNITURE_D2_CH_BAC
 10
0.0407825
 20
0.243669
 30
0
  0
VERTEX
  8
72_ARTEK_AKFURNITURE_D2_CH_BAC
 10
0.0391225
 20
0.24376
 30
0
  0
VERTEX
  8
72_ARTEK_AKFURNITURE_D2_CH_BAC
 10
0.0371865
 20
0.243959
 30
0
  0
VERTEX
  8
72_ARTEK_AKFURNITURE_D2_CH_BAC
 10
0.0334913
 20
0.244435
 30
0
  0
VERTEX
  8
72_ARTEK_AKFURNITURE_D2_CH_BAC
 10
0.0273549
 20
0.245849
 30
0
  0
VERTEX
  8
72_ARTEK_AKFURNITURE_D2_CH_BAC
 10
0.023594
 20
0.247469
 30
0
  0
VERTEX
  8
72_ARTEK_AKFURNITURE_D2_CH_BAC
 10
0.0198066
 20
0.251386
 30
0
  0
VERTEX
  8
72_ARTEK_AKFURNITURE_D2_CH_BAC
 10
0.0193651
 20
0.252551
 30
0
  0
VERTEX
  8
72_ARTEK_AKFURNITURE_D2_CH_BAC
 10
0.0190268
 20
0.254845
 30
0
  0
VERTEX
  8
72_ARTEK_AKFURNITURE_D2_CH_BAC
 10
0.019
 20
0.2487
 30
0
  0
VERTEX
  8
72_ARTEK_AKFURNITURE_D2_CH_BAC
 10
0.019
 20
0.194225
 30
0
  0
VERTEX
  8
72_ARTEK_AKFURNITURE_D2_CH_BAC
 10
0.019
 20
0.166987
 30
0
  0
VERTEX
  8
72_ARTEK_AKFURNITURE_D2_CH_BAC
 10
0.019
 20
0.153369
 30
0
  0
VERTEX
  8
72_ARTEK_AKFURNITURE_D2_CH_BAC
 10
0.0195505
 20
0.147771
 30
0
  0
VERTEX
  8
72_ARTEK_AKFURNITURE_D2_CH_BAC
 10
0.0202222
 20
0.145033
 30
0
  0
SEQEND
  0
POLYLINE
  8
72_ARTEK_AKFURNITURE_D2SNAP
 66
     1
 70
     0
 10
0.0
 20
0.0
 30
0.0
  0
VERTEX
  8
72_ARTEK_AKFURNITURE_D2SNAP
 10
0.3155
 20
-0
 30
0
  0
VERTEX
  8
72_ARTEK_AKFURNITURE_D2SNAP
 10
0.31526
 20
0.00243863
 30
0
  0
VERTEX
  8
72_ARTEK_AKFURNITURE_D2SNAP
 10
0.314548
 20
0.00478354
 30
0
  0
VERTEX
  8
72_ARTEK_AKFURNITURE_D2SNAP
 10
0.313393
 20
0.00694463
 30
0
  0
VERTEX
  8
72_ARTEK_AKFURNITURE_D2SNAP
 10
0.311839
 20
0.00883883
 30
0
  0
VERTEX
  8
72_ARTEK_AKFURNITURE_D2SNAP
 10
0.309945
 20
0.0103934
 30
0
  0
VERTEX
  8
72_ARTEK_AKFURNITURE_D2SNAP
 10
0.307784
 20
0.0115485
 30
0
  0
VERTEX
  8
72_ARTEK_AKFURNITURE_D2SNAP
 10
0.305439
 20
0.0122598
 30
0
  0
VERTEX
  8
72_ARTEK_AKFURNITURE_D2SNAP
 10
0.303
 20
0.0125
 30
0
  0
VERTEX
  8
72_ARTEK_AKFURNITURE_D2SNAP
 10
0.300561
 20
0.0122598
 30
0
  0
VERTEX
  8
72_ARTEK_AKFURNITURE_D2SNAP
 10
0.298216
 20
0.0115485
 30
0
  0
VERTEX
  8
72_ARTEK_AKFURNITURE_D2SNAP
 10
0.296055
 20
0.0103934
 30
0
  0
VERTEX
  8
72_ARTEK_AKFURNITURE_D2SNAP
 10
0.294161
 20
0.00883883
 30
0
  0
VERTEX
  8
72_ARTEK_AKFURNITURE_D2SNAP
 10
0.292607
 20
0.00694463
 30
0
  0
VERTEX
  8
72_ARTEK_AKFURNITURE_D2SNAP
 10
0.291452
 20
0.00478354
 30
0
  0
VERTEX
  8
72_ARTEK_AKFURNITURE_D2SNAP
 10
0.29074
 20
0.00243863
 30
0
  0
VERTEX
  8
72_ARTEK_AKFURNITURE_D2SNAP
 10
0.2905
 20
3.15316e-018
 30
0
  0
VERTEX
  8
72_ARTEK_AKFURNITURE_D2SNAP
 10
0.29074
 20
-0.00243863
 30
0
  0
VERTEX
  8
72_ARTEK_AKFURNITURE_D2SNAP
 10
0.291452
 20
-0.00478354
 30
0
  0
VERTEX
  8
72_ARTEK_AKFURNITURE_D2SNAP
 10
0.292607
 20
-0.00694463
 30
0
  0
VERTEX
  8
72_ARTEK_AKFURNITURE_D2SNAP
 10
0.294161
 20
-0.00883883
 30
0
  0
VERTEX
  8
72_ARTEK_AKFURNITURE_D2SNAP
 10
0.296055
 20
-0.0103934
 30
0
  0
VERTEX
  8
72_ARTEK_AKFURNITURE_D2SNAP
 10
0.298216
 20
-0.0115485
 30
0
  0
VERTEX
  8
72_ARTEK_AKFURNITURE_D2SNAP
 10
0.300561
 20
-0.0122598
 30
0
  0
VERTEX
  8
72_ARTEK_AKFURNITURE_D2SNAP
 10
0.303
 20
-0.0125
 30
0
  0
VERTEX
  8
72_ARTEK_AKFURNITURE_D2SNAP
 10
0.305439
 20
-0.0122598
 30
0
  0
VERTEX
  8
72_ARTEK_AKFURNITURE_D2SNAP
 10
0.307784
 20
-0.0115485
 30
0
  0
VERTEX
  8
72_ARTEK_AKFURNITURE_D2SNAP
 10
0.309945
 20
-0.0103934
 30
0
  0
VERTEX
  8
72_ARTEK_AKFURNITURE_D2SNAP
 10
0.311839
 20
-0.00883883
 30
0
  0
VERTEX
  8
72_ARTEK_AKFURNITURE_D2SNAP
 10
0.313393
 20
-0.00694463
 30
0
  0
VERTEX
  8
72_ARTEK_AKFURNITURE_D2SNAP
 10
0.314548
 20
-0.00478354
 30
0
  0
VERTEX
  8
72_ARTEK_AKFURNITURE_D2SNAP
 10
0.31526
 20
-0.00243863
 30
0
  0
VERTEX
  8
72_ARTEK_AKFURNITURE_D2SNAP
 10
0.3155
 20
-0
 30
0
  0
SEQEND
  0
POLYLINE
  8
72_ARTEK_AKFURNITURE_D2SNAP
 66
     1
 70
     0
 10
0.0
 20
0.0
 30
0.0
  0
VERTEX
  8
72_ARTEK_AKFURNITURE_D2SNAP
 10
0.285322
 20
-0.0176777
 30
0
  0
VERTEX
  8
72_ARTEK_AKFURNITURE_D2SNAP
 10
0.320678
 20
0.0176777
 30
0
  0
SEQEND
  0
POLYLINE
  8
72_ARTEK_AKFURNITURE_D2SNAP
 66
     1
 70
     0
 10
0.0
 20
0.0
 30
0.0
  0
VERTEX
  8
72_ARTEK_AKFURNITURE_D2SNAP
 10
0.285322
 20
0.0176777
 30
0
  0
VERTEX
  8
72_ARTEK_AKFURNITURE_D2SNAP
 10
0.320678
 20
-0.0176777
 30
0
  0
SEQEND
  0
POLYLINE
  8
72_ARTEK_AKFURNITURE_D2_CH_FOO
 66
     1
 70
     0
 10
0.0
 20
0.0
 30
0.0
  0
VERTEX
  8
72_ARTEK_AKFURNITURE_D2_CH_FOO
 10
0.019
 20
0.127422
 30
0
  0
VERTEX
  8
72_ARTEK_AKFURNITURE_D2_CH_FOO
 10
0.015
 20
0.127422
 30
0
  0
VERTEX
  8
72_ARTEK_AKFURNITURE_D2_CH_FOO
 10
0.015
 20
0.300233
 30
0
  0
VERTEX
  8
72_ARTEK_AKFURNITURE_D2_CH_FOO
 10
0.015
 20
0.300233
 30
0
  0
VERTEX
  8
72_ARTEK_AKFURNITURE_D2_CH_FOO
 10
0.0148638
 20
0.298763
 30
0
  0
VERTEX
  8
72_ARTEK_AKFURNITURE_D2_CH_FOO
 10
0.0144598
 20
0.297343
 30
0
  0
VERTEX
  8
72_ARTEK_AKFURNITURE_D2_CH_FOO
 10
0.0138017
 20
0.296022
 30
0
  0
VERTEX
  8
72_ARTEK_AKFURNITURE_D2_CH_FOO
 10
0.0129121
 20
0.294844
 30
0
  0
VERTEX
  8
72_ARTEK_AKFURNITURE_D2_CH_FOO
 10
0.0118211
 20
0.293849
 30
0
  0
VERTEX
  8
72_ARTEK_AKFURNITURE_D2_CH_FOO
 10
0.0105659
 20
0.293072
 30
0
  0
VERTEX
  8
72_ARTEK_AKFURNITURE_D2_CH_FOO
 10
0.00918929
 20
0.292539
 30
0
  0
VERTEX
  8
72_ARTEK_AKFURNITURE_D2_CH_FOO
 10
0.00773814
 20
0.292268
 30
0
  0
VERTEX
  8
72_ARTEK_AKFURNITURE_D2_CH_FOO
 10
0.00626184
 20
0.292268
 30
0
  0
VERTEX
  8
72_ARTEK_AKFURNITURE_D2_CH_FOO
 10
0.00481069
 20
0.292539
 30
0
  0
VERTEX
  8
72_ARTEK_AKFURNITURE_D2_CH_FOO
 10
0.00343409
 20
0.293072
 30
0
  0
VERTEX
  8
72_ARTEK_AKFURNITURE_D2_CH_FOO
 10
0.00217893
 20
0.293849
 30
0
  0
VERTEX
  8
72_ARTEK_AKFURNITURE_D2_CH_FOO
 10
0.00108794
 20
0.294844
 30
0
  0
VERTEX
  8
72_ARTEK_AKFURNITURE_D2_CH_FOO
 10
0.00019828
 20
0.296022
 30
0
  0
VERTEX
  8
72_ARTEK_AKFURNITURE_D2_CH_FOO
 10
-0.000459752
 20
0.297343
 30
0
  0
VERTEX
  8
72_ARTEK_AKFURNITURE_D2_CH_FOO
 10
-0.000863749
 20
0.298763
 30
0
  0
VERTEX
  8
72_ARTEK_AKFURNITURE_D2_CH_FOO
 10
-0.000999954
 20
0.300233
 30
0
  0
VERTEX
  8
72_ARTEK_AKFURNITURE_D2_CH_FOO
 10
-0.000999954
 20
-0.298767
 30
0
  0
VERTEX
  8
72_ARTEK_AKFURNITURE_D2_CH_FOO
 10
-0.000999954
 20
-0.298767
 30
0
  0
VERTEX
  8
72_ARTEK_AKFURNITURE_D2_CH_FOO
 10
-0.000863749
 20
-0.297297
 30
0
  0
VERTEX
  8
72_ARTEK_AKFURNITURE_D2_CH_FOO
 10
-0.00045975
 20
-0.295877
 30
0
  0
VERTEX
  8
72_ARTEK_AKFURNITURE_D2_CH_FOO
 10
0.000198285
 20
-0.294555
 30
0
  0
VERTEX
  8
72_ARTEK_AKFURNITURE_D2_CH_FOO
 10
0.00108795
 20
-0.293377
 30
0
  0
VERTEX
  8
72_ARTEK_AKFURNITURE_D2_CH_FOO
 10
0.00217894
 20
-0.292382
 30
0
  0
VERTEX
  8
72_ARTEK_AKFURNITURE_D2_CH_FOO
 10
0.00343411
 20
-0.291605
 30
0
  0
VERTEX
  8
72_ARTEK_AKFURNITURE_D2_CH_FOO
 10
0.00481071
 20
-0.291072
 30
0
  0
VERTEX
  8
72_ARTEK_AKFURNITURE_D2_CH_FOO
 10
0.00626187
 20
-0.290801
 30
0
  0
VERTEX
  8
72_ARTEK_AKFURNITURE_D2_CH_FOO
 10
0.00773817
 20
-0.290801
 30
0
  0
VERTEX
  8
72_ARTEK_AKFURNITURE_D2_CH_FOO
 10
0.00918933
 20
-0.291072
 30
0
  0
VERTEX
  8
72_ARTEK_AKFURNITURE_D2_CH_FOO
 10
0.0105659
 20
-0.291605
 30
0
  0
VERTEX
  8
72_ARTEK_AKFURNITURE_D2_CH_FOO
 10
0.0118211
 20
-0.292382
 30
0
  0
VERTEX
  8
72_ARTEK_AKFURNITURE_D2_CH_FOO
 10
0.0129121
 20
-0.293377
 30
0
  0
VERTEX
  8
72_ARTEK_AKFURNITURE_D2_CH_FOO
 10
0.0138018
 20
-0.294555
 30
0
  0
VERTEX
  8
72_ARTEK_AKFURNITURE_D2_CH_FOO
 10
0.0144598
 20
-0.295877
 30
0
  0
VERTEX
  8
72_ARTEK_AKFURNITURE_D2_CH_FOO
 10
0.0148638
 20
-0.297297
 30
0
  0
VERTEX
  8
72_ARTEK_AKFURNITURE_D2_CH_FOO
 10
0.015
 20
-0.298767
 30
0
  0
VERTEX
  8
72_ARTEK_AKFURNITURE_D2_CH_FOO
 10
0.015
 20
-0.110281
 30
0
  0
VERTEX
  8
72_ARTEK_AKFURNITURE_D2_CH_FOO
 10
0.019
 20
-0.110281
 30
0
  0
VERTEX
  8
72_ARTEK_AKFURNITURE_D2_CH_FOO
 10
0.019
 20
-0.0922813
 30
0
  0
VERTEX
  8
72_ARTEK_AKFURNITURE_D2_CH_FOO
 10
0.015
 20
-0.0922813
 30
0
  0
VERTEX
  8
72_ARTEK_AKFURNITURE_D2_CH_FOO
 10
0.015
 20
0.109422
 30
0
  0
VERTEX
  8
72_ARTEK_AKFURNITURE_D2_CH_FOO
 10
0.019
 20
0.109422
 30
0
  0
VERTEX
  8
72_ARTEK_AKFURNITURE_D2_CH_FOO
 10
0.019
 20
0.127422
 30
0
  0
SEQEND
  0
POLYLINE
  8
72_ARTEK_AKFURNITURE_D2_CH_FOO
 66
     1
 70
     0
 10
0.0
 20
0.0
 30
0.0
  0
VERTEX
  8
72_ARTEK_AKFURNITURE_D2_CH_FOO
 10
0.015
 20
-0.313767
 30
0
  0
VERTEX
  8
72_ARTEK_AKFURNITURE_D2_CH_FOO
 10
0.015
 20
-0.298767
 30
0
  0
VERTEX
  8
72_ARTEK_AKFURNITURE_D2_CH_FOO
 10
0.015
 20
-0.298767
 30
0
  0
VERTEX
  8
72_ARTEK_AKFURNITURE_D2_CH_FOO
 10
0.0148638
 20
-0.297297
 30
0
  0
VERTEX
  8
72_ARTEK_AKFURNITURE_D2_CH_FOO
 10
0.0144598
 20
-0.295877
 30
0
  0
VERTEX
  8
72_ARTEK_AKFURNITURE_D2_CH_FOO
 10
0.0138018
 20
-0.294555
 30
0
  0
VERTEX
  8
72_ARTEK_AKFURNITURE_D2_CH_FOO
 10
0.0129121
 20
-0.293377
 30
0
  0
VERTEX
  8
72_ARTEK_AKFURNITURE_D2_CH_FOO
 10
0.0118211
 20
-0.292382
 30
0
  0
VERTEX
  8
72_ARTEK_AKFURNITURE_D2_CH_FOO
 10
0.0105659
 20
-0.291605
 30
0
  0
VERTEX
  8
72_ARTEK_AKFURNITURE_D2_CH_FOO
 10
0.00918933
 20
-0.291072
 30
0
  0
VERTEX
  8
72_ARTEK_AKFURNITURE_D2_CH_FOO
 10
0.00773817
 20
-0.290801
 30
0
  0
VERTEX
  8
72_ARTEK_AKFURNITURE_D2_CH_FOO
 10
0.00626187
 20
-0.290801
 30
0
  0
VERTEX
  8
72_ARTEK_AKFURNITURE_D2_CH_FOO
 10
0.00481071
 20
-0.291072
 30
0
  0
VERTEX
  8
72_ARTEK_AKFURNITURE_D2_CH_FOO
 10
0.00343411
 20
-0.291605
 30
0
  0
VERTEX
  8
72_ARTEK_AKFURNITURE_D2_CH_FOO
 10
0.00217894
 20
-0.292382
 30
0
  0
VERTEX
  8
72_ARTEK_AKFURNITURE_D2_CH_FOO
 10
0.00108795
 20
-0.293377
 30
0
  0
VERTEX
  8
72_ARTEK_AKFURNITURE_D2_CH_FOO
 10
0.000198285
 20
-0.294555
 30
0
  0
VERTEX
  8
72_ARTEK_AKFURNITURE_D2_CH_FOO
 10
-0.00045975
 20
-0.295877
 30
0
  0
VERTEX
  8
72_ARTEK_AKFURNITURE_D2_CH_FOO
 10
-0.000863749
 20
-0.297297
 30
0
  0
VERTEX
  8
72_ARTEK_AKFURNITURE_D2_CH_FOO
 10
-0.000999954
 20
-0.298767
 30
0
  0
VERTEX
  8
72_ARTEK_AKFURNITURE_D2_CH_FOO
 10
-0.000999954
 20
-0.313767
 30
0
  0
VERTEX
  8
72_ARTEK_AKFURNITURE_D2_CH_FOO
 10
-0.000999954
 20
-0.313767
 30
0
  0
VERTEX
  8
72_ARTEK_AKFURNITURE_D2_CH_FOO
 10
-0.000863749
 20
-0.315237
 30
0
  0
VERTEX
  8
72_ARTEK_AKFURNITURE_D2_CH_FOO
 10
-0.000459752
 20
-0.316657
 30
0
  0
VERTEX
  8
72_ARTEK_AKFURNITURE_D2_CH_FOO
 10
0.00019828
 20
-0.317978
 30
0
  0
VERTEX
  8
72_ARTEK_AKFURNITURE_D2_CH_FOO
 10
0.00108794
 20
-0.319156
 30
0
  0
VERTEX
  8
72_ARTEK_AKFURNITURE_D2_CH_FOO
 10
0.00217893
 20
-0.320151
 30
0
  0
VERTEX
  8
72_ARTEK_AKFURNITURE_D2_CH_FOO
 10
0.00343409
 20
-0.320928
 30
0
  0
VERTEX
  8
72_ARTEK_AKFURNITURE_D2_CH_FOO
 10
0.00481069
 20
-0.321461
 30
0
  0
VERTEX
  8
72_ARTEK_AKFURNITURE_D2_CH_FOO
 10
0.00626184
 20
-0.321732
 30
0
  0
VERTEX
  8
72_ARTEK_AKFURNITURE_D2_CH_FOO
 10
0.00773814
 20
-0.321733
 30
0
  0
VERTEX
  8
72_ARTEK_AKFURNITURE_D2_CH_FOO
 10
0.00918929
 20
-0.321461
 30
0
  0
VERTEX
  8
72_ARTEK_AKFURNITURE_D2_CH_FOO
 10
0.0105659
 20
-0.320928
 30
0
  0
VERTEX
  8
72_ARTEK_AKFURNITURE_D2_CH_FOO
 10
0.0118211
 20
-0.320151
 30
0
  0
VERTEX
  8
72_ARTEK_AKFURNITURE_D2_CH_FOO
 10
0.0129121
 20
-0.319156
 30
0
  0
VERTEX
  8
72_ARTEK_AKFURNITURE_D2_CH_FOO
 10
0.0138017
 20
-0.317978
 30
0
  0
VERTEX
  8
72_ARTEK_AKFURNITURE_D2_CH_FOO
 10
0.0144598
 20
-0.316657
 30
0
  0
VERTEX
  8
72_ARTEK_AKFURNITURE_D2_CH_FOO
 10
0.0148638
 20
-0.315237
 30
0
  0
VERTEX
  8
72_ARTEK_AKFURNITURE_D2_CH_FOO
 10
0.015
 20
-0.313767
 30
0
  0
SEQEND
  0
POLYLINE
  8
72_ARTEK_AKFURNITURE_D2_CH_FOO
 66
     1
 70
     0
 10
0.0
 20
0.0
 30
0.0
  0
VERTEX
  8
72_ARTEK_AKFURNITURE_D2_CH_FOO
 10
0.015
 20
0.300233
 30
0
  0
VERTEX
  8
72_ARTEK_AKFURNITURE_D2_CH_FOO
 10
0.015
 20
0.315233
 30
0
  0
VERTEX
  8
72_ARTEK_AKFURNITURE_D2_CH_FOO
 10
0.015
 20
0.315233
 30
0
  0
VERTEX
  8
72_ARTEK_AKFURNITURE_D2_CH_FOO
 10
0.0148638
 20
0.316703
 30
0
  0
VERTEX
  8
72_ARTEK_AKFURNITURE_D2_CH_FOO
 10
0.0144598
 20
0.318123
 30
0
  0
VERTEX
  8
72_ARTEK_AKFURNITURE_D2_CH_FOO
 10
0.0138018
 20
0.319445
 30
0
  0
VERTEX
  8
72_ARTEK_AKFURNITURE_D2_CH_FOO
 10
0.0129121
 20
0.320623
 30
0
  0
VERTEX
  8
72_ARTEK_AKFURNITURE_D2_CH_FOO
 10
0.0118211
 20
0.321618
 30
0
  0
VERTEX
  8
72_ARTEK_AKFURNITURE_D2_CH_FOO
 10
0.0105659
 20
0.322395
 30
0
  0
VERTEX
  8
72_ARTEK_AKFURNITURE_D2_CH_FOO
 10
0.00918933
 20
0.322928
 30
0
  0
VERTEX
  8
72_ARTEK_AKFURNITURE_D2_CH_FOO
 10
0.00773817
 20
0.323199
 30
0
  0
VERTEX
  8
72_ARTEK_AKFURNITURE_D2_CH_FOO
 10
0.00626187
 20
0.323199
 30
0
  0
VERTEX
  8
72_ARTEK_AKFURNITURE_D2_CH_FOO
 10
0.00481071
 20
0.322928
 30
0
  0
VERTEX
  8
72_ARTEK_AKFURNITURE_D2_CH_FOO
 10
0.00343411
 20
0.322395
 30
0
  0
VERTEX
  8
72_ARTEK_AKFURNITURE_D2_CH_FOO
 10
0.00217894
 20
0.321618
 30
0
  0
VERTEX
  8
72_ARTEK_AKFURNITURE_D2_CH_FOO
 10
0.00108795
 20
0.320623
 30
0
  0
VERTEX
  8
72_ARTEK_AKFURNITURE_D2_CH_FOO
 10
0.000198285
 20
0.319445
 30
0
  0
VERTEX
  8
72_ARTEK_AKFURNITURE_D2_CH_FOO
 10
-0.00045975
 20
0.318123
 30
0
  0
VERTEX
  8
72_ARTEK_AKFURNITURE_D2_CH_FOO
 10
-0.000863749
 20
0.316703
 30
0
  0
VERTEX
  8
72_ARTEK_AKFURNITURE_D2_CH_FOO
 10
-0.000999954
 20
0.315233
 30
0
  0
VERTEX
  8
72_ARTEK_AKFURNITURE_D2_CH_FOO
 10
-0.000999954
 20
0.300233
 30
0
  0
VERTEX
  8
72_ARTEK_AKFURNITURE_D2_CH_FOO
 10
-0.000999954
 20
0.300233
 30
0
  0
VERTEX
  8
72_ARTEK_AKFURNITURE_D2_CH_FOO
 10
-0.000863749
 20
0.298763
 30
0
  0
VERTEX
  8
72_ARTEK_AKFURNITURE_D2_CH_FOO
 10
-0.000459752
 20
0.297343
 30
0
  0
VERTEX
  8
72_ARTEK_AKFURNITURE_D2_CH_FOO
 10
0.00019828
 20
0.296022
 30
0
  0
VERTEX
  8
72_ARTEK_AKFURNITURE_D2_CH_FOO
 10
0.00108794
 20
0.294844
 30
0
  0
VERTEX
  8
72_ARTEK_AKFURNITURE_D2_CH_FOO
 10
0.00217893
 20
0.293849
 30
0
  0
VERTEX
  8
72_ARTEK_AKFURNITURE_D2_CH_FOO
 10
0.00343409
 20
0.293072
 30
0
  0
VERTEX
  8
72_ARTEK_AKFURNITURE_D2_CH_FOO
 10
0.00481069
 20
0.292539
 30
0
  0
VERTEX
  8
72_ARTEK_AKFURNITURE_D2_CH_FOO
 10
0.00626184
 20
0.292268
 30
0
  0
VERTEX
  8
72_ARTEK_AKFURNITURE_D2_CH_FOO
 10
0.00773814
 20
0.292268
 30
0
  0
VERTEX
  8
72_ARTEK_AKFURNITURE_D2_CH_FOO
 10
0.00918929
 20
0.292539
 30
0
  0
VERTEX
  8
72_ARTEK_AKFURNITURE_D2_CH_FOO
 10
0.0105659
 20
0.293072
 30
0
  0
VERTEX
  8
72_ARTEK_AKFURNITURE_D2_CH_FOO
 10
0.0118211
 20
0.293849
 30
0
  0
VERTEX
  8
72_ARTEK_AKFURNITURE_D2_CH_FOO
 10
0.0129121
 20
0.294844
 30
0
  0
VERTEX
  8
72_ARTEK_AKFURNITURE_D2_CH_FOO
 10
0.0138017
 20
0.296022
 30
0
  0
VERTEX
  8
72_ARTEK_AKFURNITURE_D2_CH_FOO
 10
0.0144598
 20
0.297343
 30
0
  0
VERTEX
  8
72_ARTEK_AKFURNITURE_D2_CH_FOO
 10
0.0148638
 20
0.298763
 30
0
  0
VERTEX
  8
72_ARTEK_AKFURNITURE_D2_CH_FOO
 10
0.015
 20
0.300233
 30
0
  0
SEQEND
  0
POLYLINE
  8
72_ARTEK_AKFURNITURE_D2_CH_FOO
 66
     1
 70
     0
 10
0.0
 20
0.0
 30
0.0
  0
VERTEX
  8
72_ARTEK_AKFURNITURE_D2_CH_FOO
 10
0.015
 20
-0.297267
 30
0
  0
VERTEX
  8
72_ARTEK_AKFURNITURE_D2_CH_FOO
 10
0.015
 20
-0.315267
 30
0
  0
VERTEX
  8
72_ARTEK_AKFURNITURE_D2_CH_FOO
 10
0.019
 20
-0.315267
 30
0
  0
VERTEX
  8
72_ARTEK_AKFURNITURE_D2_CH_FOO
 10
0.019
 20
-0.297267
 30
0
  0
VERTEX
  8
72_ARTEK_AKFURNITURE_D2_CH_FOO
 10
0.015
 20
-0.297267
 30
0
  0
SEQEND
  0
POLYLINE
  8
72_ARTEK_AKFURNITURE_D2_CH_FOO
 66
     1
 70
     0
 10
0.0
 20
0.0
 30
0.0
  0
VERTEX
  8
72_ARTEK_AKFURNITURE_D2_CH_FOO
 10
0.015
 20
0.316733
 30
0
  0
VERTEX
  8
72_ARTEK_AKFURNITURE_D2_CH_FOO
 10
0.015
 20
0.298733
 30
0
  0
VERTEX
  8
72_ARTEK_AKFURNITURE_D2_CH_FOO
 10
0.019
 20
0.298733
 30
0
  0
VERTEX
  8
72_ARTEK_AKFURNITURE_D2_CH_FOO
 10
0.019
 20
0.316733
 30
0
  0
VERTEX
  8
72_ARTEK_AKFURNITURE_D2_CH_FOO
 10
0.015
 20
0.316733
 30
0
  0
SEQEND
  0
POLYLINE
  8
72_ARTEK_AKFURNITURE_D2_CH_FOO
 66
     1
 70
     0
 10
0.0
 20
0.0
 30
0.0
  0
VERTEX
  8
72_ARTEK_AKFURNITURE_D2_CH_FOO
 10
0.587
 20
0.127422
 30
0
  0
VERTEX
  8
72_ARTEK_AKFURNITURE_D2_CH_FOO
 10
0.591
 20
0.127422
 30
0
  0
VERTEX
  8
72_ARTEK_AKFURNITURE_D2_CH_FOO
 10
0.591
 20
0.300233
 30
0
  0
VERTEX
  8
72_ARTEK_AKFURNITURE_D2_CH_FOO
 10
0.591
 20
0.300233
 30
0
  0
VERTEX
  8
72_ARTEK_AKFURNITURE_D2_CH_FOO
 10
0.591136
 20
0.298763
 30
0
  0
VERTEX
  8
72_ARTEK_AKFURNITURE_D2_CH_FOO
 10
0.59154
 20
0.297343
 30
0
  0
VERTEX
  8
72_ARTEK_AKFURNITURE_D2_CH_FOO
 10
0.592198
 20
0.296022
 30
0
  0
VERTEX
  8
72_ARTEK_AKFURNITURE_D2_CH_FOO
 10
0.593088
 20
0.294844
 30
0
  0
VERTEX
  8
72_ARTEK_AKFURNITURE_D2_CH_FOO
 10
0.594179
 20
0.293849
 30
0
  0
VERTEX
  8
72_ARTEK_AKFURNITURE_D2_CH_FOO
 10
0.595434
 20
0.293072
 30
0
  0
VERTEX
  8
72_ARTEK_AKFURNITURE_D2_CH_FOO
 10
0.596811
 20
0.292539
 30
0
  0
VERTEX
  8
72_ARTEK_AKFURNITURE_D2_CH_FOO
 10
0.598262
 20
0.292268
 30
0
  0
VERTEX
  8
72_ARTEK_AKFURNITURE_D2_CH_FOO
 10
0.599738
 20
0.292268
 30
0
  0
VERTEX
  8
72_ARTEK_AKFURNITURE_D2_CH_FOO
 10
0.601189
 20
0.292539
 30
0
  0
VERTEX
  8
72_ARTEK_AKFURNITURE_D2_CH_FOO
 10
0.602566
 20
0.293072
 30
0
  0
VERTEX
  8
72_ARTEK_AKFURNITURE_D2_CH_FOO
 10
0.603821
 20
0.293849
 30
0
  0
VERTEX
  8
72_ARTEK_AKFURNITURE_D2_CH_FOO
 10
0.604912
 20
0.294844
 30
0
  0
VERTEX
  8
72_ARTEK_AKFURNITURE_D2_CH_FOO
 10
0.605802
 20
0.296022
 30
0
  0
VERTEX
  8
72_ARTEK_AKFURNITURE_D2_CH_FOO
 10
0.60646
 20
0.297343
 30
0
  0
VERTEX
  8
72_ARTEK_AKFURNITURE_D2_CH_FOO
 10
0.606864
 20
0.298763
 30
0
  0
VERTEX
  8
72_ARTEK_AKFURNITURE_D2_CH_FOO
 10
0.607
 20
0.300233
 30
0
  0
VERTEX
  8
72_ARTEK_AKFURNITURE_D2_CH_FOO
 10
0.607
 20
-0.298767
 30
0
  0
VERTEX
  8
72_ARTEK_AKFURNITURE_D2_CH_FOO
 10
0.607
 20
-0.298767
 30
0
  0
VERTEX
  8
72_ARTEK_AKFURNITURE_D2_CH_FOO
 10
0.606864
 20
-0.297297
 30
0
  0
VERTEX
  8
72_ARTEK_AKFURNITURE_D2_CH_FOO
 10
0.60646
 20
-0.295877
 30
0
  0
VERTEX
  8
72_ARTEK_AKFURNITURE_D2_CH_FOO
 10
0.605802
 20
-0.294555
 30
0
  0
VERTEX
  8
72_ARTEK_AKFURNITURE_D2_CH_FOO
 10
0.604912
 20
-0.293377
 30
0
  0
VERTEX
  8
72_ARTEK_AKFURNITURE_D2_CH_FOO
 10
0.603821
 20
-0.292382
 30
0
  0
VERTEX
  8
72_ARTEK_AKFURNITURE_D2_CH_FOO
 10
0.602566
 20
-0.291605
 30
0
  0
VERTEX
  8
72_ARTEK_AKFURNITURE_D2_CH_FOO
 10
0.601189
 20
-0.291072
 30
0
  0
VERTEX
  8
72_ARTEK_AKFURNITURE_D2_CH_FOO
 10
0.599738
 20
-0.290801
 30
0
  0
VERTEX
  8
72_ARTEK_AKFURNITURE_D2_CH_FOO
 10
0.598262
 20
-0.290801
 30
0
  0
VERTEX
  8
72_ARTEK_AKFURNITURE_D2_CH_FOO
 10
0.596811
 20
-0.291072
 30
0
  0
VERTEX
  8
72_ARTEK_AKFURNITURE_D2_CH_FOO
 10
0.595434
 20
-0.291605
 30
0
  0
VERTEX
  8
72_ARTEK_AKFURNITURE_D2_CH_FOO
 10
0.594179
 20
-0.292382
 30
0
  0
VERTEX
  8
72_ARTEK_AKFURNITURE_D2_CH_FOO
 10
0.593088
 20
-0.293377
 30
0
  0
VERTEX
  8
72_ARTEK_AKFURNITURE_D2_CH_FOO
 10
0.592198
 20
-0.294555
 30
0
  0
VERTEX
  8
72_ARTEK_AKFURNITURE_D2_CH_FOO
 10
0.59154
 20
-0.295877
 30
0
  0
VERTEX
  8
72_ARTEK_AKFURNITURE_D2_CH_FOO
 10
0.591136
 20
-0.297297
 30
0
  0
VERTEX
  8
72_ARTEK_AKFURNITURE_D2_CH_FOO
 10
0.591
 20
-0.298767
 30
0
  0
VERTEX
  8
72_ARTEK_AKFURNITURE_D2_CH_FOO
 10
0.591
 20
-0.110281
 30
0
  0
VERTEX
  8
72_ARTEK_AKFURNITURE_D2_CH_FOO
 10
0.587
 20
-0.110281
 30
0
  0
VERTEX
  8
72_ARTEK_AKFURNITURE_D2_CH_FOO
 10
0.587
 20
-0.0922813
 30
0
  0
VERTEX
  8
72_ARTEK_AKFURNITURE_D2_CH_FOO
 10
0.591
 20
-0.0922813
 30
0
  0
VERTEX
  8
72_ARTEK_AKFURNITURE_D2_CH_FOO
 10
0.591
 20
0.109422
 30
0
  0
VERTEX
  8
72_ARTEK_AKFURNITURE_D2_CH_FOO
 10
0.587
 20
0.109422
 30
0
  0
VERTEX
  8
72_ARTEK_AKFURNITURE_D2_CH_FOO
 10
0.587
 20
0.127422
 30
0
  0
SEQEND
  0
POLYLINE
  8
72_ARTEK_AKFURNITURE_D2_CH_FOO
 66
     1
 70
     0
 10
0.0
 20
0.0
 30
0.0
  0
VERTEX
  8
72_ARTEK_AKFURNITURE_D2_CH_FOO
 10
0.591
 20
-0.313767
 30
0
  0
VERTEX
  8
72_ARTEK_AKFURNITURE_D2_CH_FOO
 10
0.591
 20
-0.298767
 30
0
  0
VERTEX
  8
72_ARTEK_AKFURNITURE_D2_CH_FOO
 10
0.591
 20
-0.298767
 30
0
  0
VERTEX
  8
72_ARTEK_AKFURNITURE_D2_CH_FOO
 10
0.591136
 20
-0.297297
 30
0
  0
VERTEX
  8
72_ARTEK_AKFURNITURE_D2_CH_FOO
 10
0.59154
 20
-0.295877
 30
0
  0
VERTEX
  8
72_ARTEK_AKFURNITURE_D2_CH_FOO
 10
0.592198
 20
-0.294555
 30
0
  0
VERTEX
  8
72_ARTEK_AKFURNITURE_D2_CH_FOO
 10
0.593088
 20
-0.293377
 30
0
  0
VERTEX
  8
72_ARTEK_AKFURNITURE_D2_CH_FOO
 10
0.594179
 20
-0.292382
 30
0
  0
VERTEX
  8
72_ARTEK_AKFURNITURE_D2_CH_FOO
 10
0.595434
 20
-0.291605
 30
0
  0
VERTEX
  8
72_ARTEK_AKFURNITURE_D2_CH_FOO
 10
0.596811
 20
-0.291072
 30
0
  0
VERTEX
  8
72_ARTEK_AKFURNITURE_D2_CH_FOO
 10
0.598262
 20
-0.290801
 30
0
  0
VERTEX
  8
72_ARTEK_AKFURNITURE_D2_CH_FOO
 10
0.599738
 20
-0.290801
 30
0
  0
VERTEX
  8
72_ARTEK_AKFURNITURE_D2_CH_FOO
 10
0.601189
 20
-0.291072
 30
0
  0
VERTEX
  8
72_ARTEK_AKFURNITURE_D2_CH_FOO
 10
0.602566
 20
-0.291605
 30
0
  0
VERTEX
  8
72_ARTEK_AKFURNITURE_D2_CH_FOO
 10
0.603821
 20
-0.292382
 30
0
  0
VERTEX
  8
72_ARTEK_AKFURNITURE_D2_CH_FOO
 10
0.604912
 20
-0.293377
 30
0
  0
VERTEX
  8
72_ARTEK_AKFURNITURE_D2_CH_FOO
 10
0.605802
 20
-0.294555
 30
0
  0
VERTEX
  8
72_ARTEK_AKFURNITURE_D2_CH_FOO
 10
0.60646
 20
-0.295877
 30
0
  0
VERTEX
  8
72_ARTEK_AKFURNITURE_D2_CH_FOO
 10
0.606864
 20
-0.297297
 30
0
  0
VERTEX
  8
72_ARTEK_AKFURNITURE_D2_CH_FOO
 10
0.607
 20
-0.298767
 30
0
  0
VERTEX
  8
72_ARTEK_AKFURNITURE_D2_CH_FOO
 10
0.607
 20
-0.313767
 30
0
  0
VERTEX
  8
72_ARTEK_AKFURNITURE_D2_CH_FOO
 10
0.607
 20
-0.313767
 30
0
  0
VERTEX
  8
72_ARTEK_AKFURNITURE_D2_CH_FOO
 10
0.606864
 20
-0.315237
 30
0
  0
VERTEX
  8
72_ARTEK_AKFURNITURE_D2_CH_FOO
 10
0.60646
 20
-0.316657
 30
0
  0
VERTEX
  8
72_ARTEK_AKFURNITURE_D2_CH_FOO
 10
0.605802
 20
-0.317978
 30
0
  0
VERTEX
  8
72_ARTEK_AKFURNITURE_D2_CH_FOO
 10
0.604912
 20
-0.319156
 30
0
  0
VERTEX
  8
72_ARTEK_AKFURNITURE_D2_CH_FOO
 10
0.603821
 20
-0.320151
 30
0
  0
VERTEX
  8
72_ARTEK_AKFURNITURE_D2_CH_FOO
 10
0.602566
 20
-0.320928
 30
0
  0
VERTEX
  8
72_ARTEK_AKFURNITURE_D2_CH_FOO
 10
0.601189
 20
-0.321461
 30
0
  0
VERTEX
  8
72_ARTEK_AKFURNITURE_D2_CH_FOO
 10
0.599738
 20
-0.321732
 30
0
  0
VERTEX
  8
72_ARTEK_AKFURNITURE_D2_CH_FOO
 10
0.598262
 20
-0.321733
 30
0
  0
VERTEX
  8
72_ARTEK_AKFURNITURE_D2_CH_FOO
 10
0.596811
 20
-0.321461
 30
0
  0
VERTEX
  8
72_ARTEK_AKFURNITURE_D2_CH_FOO
 10
0.595434
 20
-0.320928
 30
0
  0
VERTEX
  8
72_ARTEK_AKFURNITURE_D2_CH_FOO
 10
0.594179
 20
-0.320151
 30
0
  0
VERTEX
  8
72_ARTEK_AKFURNITURE_D2_CH_FOO
 10
0.593088
 20
-0.319156
 30
0
  0
VERTEX
  8
72_ARTEK_AKFURNITURE_D2_CH_FOO
 10
0.592198
 20
-0.317978
 30
0
  0
VERTEX
  8
72_ARTEK_AKFURNITURE_D2_CH_FOO
 10
0.59154
 20
-0.316657
 30
0
  0
VERTEX
  8
72_ARTEK_AKFURNITURE_D2_CH_FOO
 10
0.591136
 20
-0.315237
 30
0
  0
VERTEX
  8
72_ARTEK_AKFURNITURE_D2_CH_FOO
 10
0.591
 20
-0.313767
 30
0
  0
SEQEND
  0
POLYLINE
  8
72_ARTEK_AKFURNITURE_D2_CH_FOO
 66
     1
 70
     0
 10
0.0
 20
0.0
 30
0.0
  0
VERTEX
  8
72_ARTEK_AKFURNITURE_D2_CH_FOO
 10
0.591
 20
0.300233
 30
0
  0
VERTEX
  8
72_ARTEK_AKFURNITURE_D2_CH_FOO
 10
0.591
 20
0.315233
 30
0
  0
VERTEX
  8
72_ARTEK_AKFURNITURE_D2_CH_FOO
 10
0.591
 20
0.315233
 30
0
  0
VERTEX
  8
72_ARTEK_AKFURNITURE_D2_CH_FOO
 10
0.591136
 20
0.316703
 30
0
  0
VERTEX
  8
72_ARTEK_AKFURNITURE_D2_CH_FOO
 10
0.59154
 20
0.318123
 30
0
  0
VERTEX
  8
72_ARTEK_AKFURNITURE_D2_CH_FOO
 10
0.592198
 20
0.319445
 30
0
  0
VERTEX
  8
72_ARTEK_AKFURNITURE_D2_CH_FOO
 10
0.593088
 20
0.320623
 30
0
  0
VERTEX
  8
72_ARTEK_AKFURNITURE_D2_CH_FOO
 10
0.594179
 20
0.321618
 30
0
  0
VERTEX
  8
72_ARTEK_AKFURNITURE_D2_CH_FOO
 10
0.595434
 20
0.322395
 30
0
  0
VERTEX
  8
72_ARTEK_AKFURNITURE_D2_CH_FOO
 10
0.596811
 20
0.322928
 30
0
  0
VERTEX
  8
72_ARTEK_AKFURNITURE_D2_CH_FOO
 10
0.598262
 20
0.323199
 30
0
  0
VERTEX
  8
72_ARTEK_AKFURNITURE_D2_CH_FOO
 10
0.599738
 20
0.323199
 30
0
  0
VERTEX
  8
72_ARTEK_AKFURNITURE_D2_CH_FOO
 10
0.601189
 20
0.322928
 30
0
  0
VERTEX
  8
72_ARTEK_AKFURNITURE_D2_CH_FOO
 10
0.602566
 20
0.322395
 30
0
  0
VERTEX
  8
72_ARTEK_AKFURNITURE_D2_CH_FOO
 10
0.603821
 20
0.321618
 30
0
  0
VERTEX
  8
72_ARTEK_AKFURNITURE_D2_CH_FOO
 10
0.604912
 20
0.320623
 30
0
  0
VERTEX
  8
72_ARTEK_AKFURNITURE_D2_CH_FOO
 10
0.605802
 20
0.319445
 30
0
  0
VERTEX
  8
72_ARTEK_AKFURNITURE_D2_CH_FOO
 10
0.60646
 20
0.318123
 30
0
  0
VERTEX
  8
72_ARTEK_AKFURNITURE_D2_CH_FOO
 10
0.606864
 20
0.316703
 30
0
  0
VERTEX
  8
72_ARTEK_AKFURNITURE_D2_CH_FOO
 10
0.607
 20
0.315233
 30
0
  0
VERTEX
  8
72_ARTEK_AKFURNITURE_D2_CH_FOO
 10
0.607
 20
0.300233
 30
0
  0
VERTEX
  8
72_ARTEK_AKFURNITURE_D2_CH_FOO
 10
0.607
 20
0.300233
 30
0
  0
VERTEX
  8
72_ARTEK_AKFURNITURE_D2_CH_FOO
 10
0.606864
 20
0.298763
 30
0
  0
VERTEX
  8
72_ARTEK_AKFURNITURE_D2_CH_FOO
 10
0.60646
 20
0.297343
 30
0
  0
VERTEX
  8
72_ARTEK_AKFURNITURE_D2_CH_FOO
 10
0.605802
 20
0.296022
 30
0
  0
VERTEX
  8
72_ARTEK_AKFURNITURE_D2_CH_FOO
 10
0.604912
 20
0.294844
 30
0
  0
VERTEX
  8
72_ARTEK_AKFURNITURE_D2_CH_FOO
 10
0.603821
 20
0.293849
 30
0
  0
VERTEX
  8
72_ARTEK_AKFURNITURE_D2_CH_FOO
 10
0.602566
 20
0.293072
 30
0
  0
VERTEX
  8
72_ARTEK_AKFURNITURE_D2_CH_FOO
 10
0.601189
 20
0.292539
 30
0
  0
VERTEX
  8
72_ARTEK_AKFURNITURE_D2_CH_FOO
 10
0.599738
 20
0.292268
 30
0
  0
VERTEX
  8
72_ARTEK_AKFURNITURE_D2_CH_FOO
 10
0.598262
 20
0.292268
 30
0
  0
VERTEX
  8
72_ARTEK_AKFURNITURE_D2_CH_FOO
 10
0.596811
 20
0.292539
 30
0
  0
VERTEX
  8
72_ARTEK_AKFURNITURE_D2_CH_FOO
 10
0.595434
 20
0.293072
 30
0
  0
VERTEX
  8
72_ARTEK_AKFURNITURE_D2_CH_FOO
 10
0.594179
 20
0.293849
 30
0
  0
VERTEX
  8
72_ARTEK_AKFURNITURE_D2_CH_FOO
 10
0.593088
 20
0.294844
 30
0
  0
VERTEX
  8
72_ARTEK_AKFURNITURE_D2_CH_FOO
 10
0.592198
 20
0.296022
 30
0
  0
VERTEX
  8
72_ARTEK_AKFURNITURE_D2_CH_FOO
 10
0.59154
 20
0.297343
 30
0
  0
VERTEX
  8
72_ARTEK_AKFURNITURE_D2_CH_FOO
 10
0.591136
 20
0.298763
 30
0
  0
VERTEX
  8
72_ARTEK_AKFURNITURE_D2_CH_FOO
 10
0.591
 20
0.300233
 30
0
  0
SEQEND
  0
POLYLINE
  8
72_ARTEK_AKFURNITURE_D2_CH_FOO
 66
     1
 70
     0
 10
0.0
 20
0.0
 30
0.0
  0
VERTEX
  8
72_ARTEK_AKFURNITURE_D2_CH_FOO
 10
0.591
 20
-0.297267
 30
0
  0
VERTEX
  8
72_ARTEK_AKFURNITURE_D2_CH_FOO
 10
0.591
 20
-0.315267
 30
0
  0
VERTEX
  8
72_ARTEK_AKFURNITURE_D2_CH_FOO
 10
0.587
 20
-0.315267
 30
0
  0
VERTEX
  8
72_ARTEK_AKFURNITURE_D2_CH_FOO
 10
0.587
 20
-0.297267
 30
0
  0
VERTEX
  8
72_ARTEK_AKFURNITURE_D2_CH_FOO
 10
0.591
 20
-0.297267
 30
0
  0
SEQEND
  0
POLYLINE
  8
72_ARTEK_AKFURNITURE_D2_CH_FOO
 66
     1
 70
     0
 10
0.0
 20
0.0
 30
0.0
  0
VERTEX
  8
72_ARTEK_AKFURNITURE_D2_CH_FOO
 10
0.591
 20
0.316733
 30
0
  0
VERTEX
  8
72_ARTEK_AKFURNITURE_D2_CH_FOO
 10
0.591
 20
0.298733
 30
0
  0
VERTEX
  8
72_ARTEK_AKFURNITURE_D2_CH_FOO
 10
0.587
 20
0.298733
 30
0
  0
VERTEX
  8
72_ARTEK_AKFURNITURE_D2_CH_FOO
 10
0.587
 20
0.316733
 30
0
  0
VERTEX
  8
72_ARTEK_AKFURNITURE_D2_CH_FOO
 10
0.591
 20
0.316733
 30
0
  0
SEQEND
  0
POLYLINE
  8
72_ARTEK_AKFURNITURE_D2SNAP
 66
     1
 70
     0
 10
0.0
 20
0.0
 30
0.0
  0
VERTEX
  8
72_ARTEK_AKFURNITURE_D2SNAP
 10
0.3155
 20
-0
 30
0
  0
VERTEX
  8
72_ARTEK_AKFURNITURE_D2SNAP
 10
0.31526
 20
0.00243863
 30
0
  0
VERTEX
  8
72_ARTEK_AKFURNITURE_D2SNAP
 10
0.314548
 20
0.00478354
 30
0
  0
VERTEX
  8
72_ARTEK_AKFURNITURE_D2SNAP
 10
0.313393
 20
0.00694463
 30
0
  0
VERTEX
  8
72_ARTEK_AKFURNITURE_D2SNAP
 10
0.311839
 20
0.00883883
 30
0
  0
VERTEX
  8
72_ARTEK_AKFURNITURE_D2SNAP
 10
0.309945
 20
0.0103934
 30
0
  0
VERTEX
  8
72_ARTEK_AKFURNITURE_D2SNAP
 10
0.307784
 20
0.0115485
 30
0
  0
VERTEX
  8
72_ARTEK_AKFURNITURE_D2SNAP
 10
0.305439
 20
0.0122598
 30
0
  0
VERTEX
  8
72_ARTEK_AKFURNITURE_D2SNAP
 10
0.303
 20
0.0125
 30
0
  0
VERTEX
  8
72_ARTEK_AKFURNITURE_D2SNAP
 10
0.300561
 20
0.0122598
 30
0
  0
VERTEX
  8
72_ARTEK_AKFURNITURE_D2SNAP
 10
0.298216
 20
0.0115485
 30
0
  0
VERTEX
  8
72_ARTEK_AKFURNITURE_D2SNAP
 10
0.296055
 20
0.0103934
 30
0
  0
VERTEX
  8
72_ARTEK_AKFURNITURE_D2SNAP
 10
0.294161
 20
0.00883883
 30
0
  0
VERTEX
  8
72_ARTEK_AKFURNITURE_D2SNAP
 10
0.292607
 20
0.00694463
 30
0
  0
VERTEX
  8
72_ARTEK_AKFURNITURE_D2SNAP
 10
0.291452
 20
0.00478354
 30
0
  0
VERTEX
  8
72_ARTEK_AKFURNITURE_D2SNAP
 10
0.29074
 20
0.00243863
 30
0
  0
VERTEX
  8
72_ARTEK_AKFURNITURE_D2SNAP
 10
0.2905
 20
3.15316e-018
 30
0
  0
VERTEX
  8
72_ARTEK_AKFURNITURE_D2SNAP
 10
0.29074
 20
-0.00243863
 30
0
  0
VERTEX
  8
72_ARTEK_AKFURNITURE_D2SNAP
 10
0.291452
 20
-0.00478354
 30
0
  0
VERTEX
  8
72_ARTEK_AKFURNITURE_D2SNAP
 10
0.292607
 20
-0.00694463
 30
0
  0
VERTEX
  8
72_ARTEK_AKFURNITURE_D2SNAP
 10
0.294161
 20
-0.00883883
 30
0
  0
VERTEX
  8
72_ARTEK_AKFURNITURE_D2SNAP
 10
0.296055
 20
-0.0103934
 30
0
  0
VERTEX
  8
72_ARTEK_AKFURNITURE_D2SNAP
 10
0.298216
 20
-0.0115485
 30
0
  0
VERTEX
  8
72_ARTEK_AKFURNITURE_D2SNAP
 10
0.300561
 20
-0.0122598
 30
0
  0
VERTEX
  8
72_ARTEK_AKFURNITURE_D2SNAP
 10
0.303
 20
-0.0125
 30
0
  0
VERTEX
  8
72_ARTEK_AKFURNITURE_D2SNAP
 10
0.305439
 20
-0.0122598
 30
0
  0
VERTEX
  8
72_ARTEK_AKFURNITURE_D2SNAP
 10
0.307784
 20
-0.0115485
 30
0
  0
VERTEX
  8
72_ARTEK_AKFURNITURE_D2SNAP
 10
0.309945
 20
-0.0103934
 30
0
  0
VERTEX
  8
72_ARTEK_AKFURNITURE_D2SNAP
 10
0.311839
 20
-0.00883883
 30
0
  0
VERTEX
  8
72_ARTEK_AKFURNITURE_D2SNAP
 10
0.313393
 20
-0.00694463
 30
0
  0
VERTEX
  8
72_ARTEK_AKFURNITURE_D2SNAP
 10
0.314548
 20
-0.00478354
 30
0
  0
VERTEX
  8
72_ARTEK_AKFURNITURE_D2SNAP
 10
0.31526
 20
-0.00243863
 30
0
  0
VERTEX
  8
72_ARTEK_AKFURNITURE_D2SNAP
 10
0.3155
 20
-0
 30
0
  0
SEQEND
  0
POLYLINE
  8
72_ARTEK_AKFURNITURE_D2SNAP
 66
     1
 70
     0
 10
0.0
 20
0.0
 30
0.0
  0
VERTEX
  8
72_ARTEK_AKFURNITURE_D2SNAP
 10
0.285322
 20
-0.0176777
 30
0
  0
VERTEX
  8
72_ARTEK_AKFURNITURE_D2SNAP
 10
0.320678
 20
0.0176777
 30
0
  0
SEQEND
  0
POLYLINE
  8
72_ARTEK_AKFURNITURE_D2SNAP
 66
     1
 70
     0
 10
0.0
 20
0.0
 30
0.0
  0
VERTEX
  8
72_ARTEK_AKFURNITURE_D2SNAP
 10
0.285322
 20
0.0176777
 30
0
  0
VERTEX
  8
72_ARTEK_AKFURNITURE_D2SNAP
 10
0.320678
 20
-0.0176777
 30
0
  0
SEQEND
  0
POLYLINE
  8
72_ARTEK_AKFURNITURE_D2_CH_SEA
 66
     1
 70
     0
 10
0.0
 20
0.0
 30
0.0
  0
VERTEX
  8
72_ARTEK_AKFURNITURE_D2_CH_SEA
 10
0.230209
 20
-0.354391
 30
0
  0
VERTEX
  8
72_ARTEK_AKFURNITURE_D2_CH_SEA
 10
0.23618
 20
-0.354392
 30
0
  0
VERTEX
  8
72_ARTEK_AKFURNITURE_D2_CH_SEA
 10
0.243499
 20
-0.354394
 30
0
  0
VERTEX
  8
72_ARTEK_AKFURNITURE_D2_CH_SEA
 10
0.252166
 20
-0.354397
 30
0
  0
VERTEX
  8
72_ARTEK_AKFURNITURE_D2_CH_SEA
 10
0.262179
 20
-0.354399
 30
0
  0
VERTEX
  8
72_ARTEK_AKFURNITURE_D2_CH_SEA
 10
0.304548
 20
-0.354404
 30
0
  0
VERTEX
  8
72_ARTEK_AKFURNITURE_D2_CH_SEA
 10
0.346884
 20
-0.354398
 30
0
  0
VERTEX
  8
72_ARTEK_AKFURNITURE_D2_CH_SEA
 10
0.356506
 20
-0.354396
 30
0
  0
VERTEX
  8
72_ARTEK_AKFURNITURE_D2_CH_SEA
 10
0.36478
 20
-0.354394
 30
0
  0
VERTEX
  8
72_ARTEK_AKFURNITURE_D2_CH_SEA
 10
0.371705
 20
-0.354392
 30
0
  0
VERTEX
  8
72_ARTEK_AKFURNITURE_D2_CH_SEA
 10
0.377339
 20
-0.35439
 30
0
  0
VERTEX
  8
72_ARTEK_AKFURNITURE_D2_CH_SEA
 10
0.419708
 20
-0.354361
 30
0
  0
VERTEX
  8
72_ARTEK_AKFURNITURE_D2_CH_SEA
 10
0.441036
 20
-0.354344
 30
0
  0
VERTEX
  8
72_ARTEK_AKFURNITURE_D2_CH_SEA
 10
0.454917
 20
-0.354336
 30
0
  0
VERTEX
  8
72_ARTEK_AKFURNITURE_D2_CH_SEA
 10
0.472592
 20
-0.354327
 30
0
  0
VERTEX
  8
72_ARTEK_AKFURNITURE_D2_CH_SEA
 10
0.479801
 20
-0.354323
 30
0
  0
VERTEX
  8
72_ARTEK_AKFURNITURE_D2_CH_SEA
 10
0.484835
 20
-0.354321
 30
0
  0
VERTEX
  8
72_ARTEK_AKFURNITURE_D2_CH_SEA
 10
0.487692
 20
-0.35432
 30
0
  0
VERTEX
  8
72_ARTEK_AKFURNITURE_D2_CH_SEA
 10
0.488844
 20
-0.35432
 30
0
  0
VERTEX
  8
72_ARTEK_AKFURNITURE_D2_CH_SEA
 10
0.492941
 20
-0.354319
 30
0
  0
VERTEX
  8
72_ARTEK_AKFURNITURE_D2_CH_SEA
 10
0.501132
 20
-0.354317
 30
0
  0
VERTEX
  8
72_ARTEK_AKFURNITURE_D2_CH_SEA
 10
0.516956
 20
-0.354295
 30
0
  0
VERTEX
  8
72_ARTEK_AKFURNITURE_D2_CH_SEA
 10
0.530454
 20
-0.354258
 30
0
  0
VERTEX
  8
72_ARTEK_AKFURNITURE_D2_CH_SEA
 10
0.540825
 20
-0.354204
 30
0
  0
VERTEX
  8
72_ARTEK_AKFURNITURE_D2_CH_SEA
 10
0.550569
 20
-0.354078
 30
0
  0
VERTEX
  8
72_ARTEK_AKFURNITURE_D2_CH_SEA
 10
0.557442
 20
-0.353948
 30
0
  0
VERTEX
  8
72_ARTEK_AKFURNITURE_D2_CH_SEA
 10
0.561049
 20
-0.353788
 30
0
  0
VERTEX
  8
72_ARTEK_AKFURNITURE_D2_CH_SEA
 10
0.563575
 20
-0.353617
 30
0
  0
VERTEX
  8
72_ARTEK_AKFURNITURE_D2_CH_SEA
 10
0.56849
 20
-0.353191
 30
0
  0
VERTEX
  8
72_ARTEK_AKFURNITURE_D2_CH_SEA
 10
0.575246
 20
-0.352218
 30
0
  0
VERTEX
  8
72_ARTEK_AKFURNITURE_D2_CH_SEA
 10
0.580099
 20
-0.350857
 30
0
  0
VERTEX
  8
72_ARTEK_AKFURNITURE_D2_CH_SEA
 10
0.583096
 20
-0.349389
 30
0
  0
VERTEX
  8
72_ARTEK_AKFURNITURE_D2_CH_SEA
 10
0.585742
 20
-0.346828
 30
0
  0
VERTEX
  8
72_ARTEK_AKFURNITURE_D2_CH_SEA
 10
0.586716
 20
-0.342936
 30
0
  0
VERTEX
  8
72_ARTEK_AKFURNITURE_D2_CH_SEA
 10
0.586865
 20
-0.336842
 30
0
  0
VERTEX
  8
72_ARTEK_AKFURNITURE_D2_CH_SEA
 10
0.586864
 20
-0.32779
 30
0
  0
VERTEX
  8
72_ARTEK_AKFURNITURE_D2_CH_SEA
 10
0.586864
 20
-0.253877
 30
0
  0
VERTEX
  8
72_ARTEK_AKFURNITURE_D2_CH_SEA
 10
0.586864
 20
-0.106051
 30
0
  0
VERTEX
  8
72_ARTEK_AKFURNITURE_D2_CH_SEA
 10
0.586864
 20
0.0417746
 30
0
  0
VERTEX
  8
72_ARTEK_AKFURNITURE_D2_CH_SEA
 10
0.586864
 20
0.115688
 30
0
  0
VERTEX
  8
72_ARTEK_AKFURNITURE_D2_CH_SEA
 10
0.586864
 20
0.134166
 30
0
  0
VERTEX
  8
72_ARTEK_AKFURNITURE_D2_CH_SEA
 10
0.586863
 20
0.14353
 30
0
  0
VERTEX
  8
72_ARTEK_AKFURNITURE_D2_CH_SEA
 10
0.58686
 20
0.148833
 30
0
  0
VERTEX
  8
72_ARTEK_AKFURNITURE_D2_CH_SEA
 10
0.586805
 20
0.149612
 30
0
  0
VERTEX
  8
72_ARTEK_AKFURNITURE_D2_CH_SEA
 10
0.586578
 20
0.148403
 30
0
  0
VERTEX
  8
72_ARTEK_AKFURNITURE_D2_CH_SEA
 10
0.586208
 20
0.146572
 30
0
  0
VERTEX
  8
72_ARTEK_AKFURNITURE_D2_CH_SEA
 10
0.585517
 20
0.144469
 30
0
  0
VERTEX
  8
72_ARTEK_AKFURNITURE_D2_CH_SEA
 10
0.580669
 20
0.140769
 30
0
  0
VERTEX
  8
72_ARTEK_AKFURNITURE_D2_CH_SEA
 10
0.577226
 20
0.139745
 30
0
  0
VERTEX
  8
72_ARTEK_AKFURNITURE_D2_CH_SEA
 10
0.572601
 20
0.13893
 30
0
  0
VERTEX
  8
72_ARTEK_AKFURNITURE_D2_CH_SEA
 10
0.56556
 20
0.138424
 30
0
  0
VERTEX
  8
72_ARTEK_AKFURNITURE_D2_CH_SEA
 10
0.560549
 20
0.138385
 30
0
  0
VERTEX
  8
72_ARTEK_AKFURNITURE_D2_CH_SEA
 10
0.557573
 20
0.138376
 30
0
  0
VERTEX
  8
72_ARTEK_AKFURNITURE_D2_CH_SEA
 10
0.552875
 20
0.138342
 30
0
  0
VERTEX
  8
72_ARTEK_AKFURNITURE_D2_CH_SEA
 10
0.547703
 20
0.1383
 30
0
  0
VERTEX
  8
72_ARTEK_AKFURNITURE_D2_CH_SEA
 10
0.541492
 20
0.138244
 30
0
  0
VERTEX
  8
72_ARTEK_AKFURNITURE_D2_CH_SEA
 10
0.531831
 20
0.138135
 30
0
  0
VERTEX
  8
72_ARTEK_AKFURNITURE_D2_CH_SEA
 10
0.521079
 20
0.138011
 30
0
  0
VERTEX
  8
72_ARTEK_AKFURNITURE_D2_CH_SEA
 10
0.509878
 20
0.137883
 30
0
  0
VERTEX
  8
72_ARTEK_AKFURNITURE_D2_CH_SEA
 10
0.496821
 20
0.137742
 30
0
  0
VERTEX
  8
72_ARTEK_AKFURNITURE_D2_CH_SEA
 10
0.488163
 20
0.137655
 30
0
  0
VERTEX
  8
72_ARTEK_AKFURNITURE_D2_CH_SEA
 10
0.477287
 20
0.137551
 30
0
  0
VERTEX
  8
72_ARTEK_AKFURNITURE_D2_CH_SEA
 10
0.45075
 20
0.137318
 30
0
  0
VERTEX
  8
72_ARTEK_AKFURNITURE_D2_CH_SEA
 10
0.396585
 20
0.136999
 30
0
  0
VERTEX
  8
72_ARTEK_AKFURNITURE_D2_CH_SEA
 10
0.383091
 20
0.136954
 30
0
  0
VERTEX
  8
72_ARTEK_AKFURNITURE_D2_CH_SEA
 10
0.371307
 20
0.136919
 30
0
  0
VERTEX
  8
72_ARTEK_AKFURNITURE_D2_CH_SEA
 10
0.362056
 20
0.136896
 30
0
  0
VERTEX
  8
72_ARTEK_AKFURNITURE_D2_CH_SEA
 10
0.355305
 20
0.136883
 30
0
  0
VERTEX
  8
72_ARTEK_AKFURNITURE_D2_CH_SEA
 10
0.342249
 20
0.136871
 30
0
  0
VERTEX
  8
72_ARTEK_AKFURNITURE_D2_CH_SEA
 10
0.334771
 20
0.136869
 30
0
  0
VERTEX
  8
72_ARTEK_AKFURNITURE_D2_CH_SEA
 10
0.325919
 20
0.136867
 30
0
  0
VERTEX
  8
72_ARTEK_AKFURNITURE_D2_CH_SEA
 10
0.315163
 20
0.136867
 30
0
  0
VERTEX
  8
72_ARTEK_AKFURNITURE_D2_CH_SEA
 10
0.302507
 20
0.136866
 30
0
  0
VERTEX
  8
72_ARTEK_AKFURNITURE_D2_CH_SEA
 10
0.289987
 20
0.136867
 30
0
  0
VERTEX
  8
72_ARTEK_AKFURNITURE_D2_CH_SEA
 10
0.27937
 20
0.136867
 30
0
  0
VERTEX
  8
72_ARTEK_AKFURNITURE_D2_CH_SEA
 10
0.270657
 20
0.136869
 30
0
  0
VERTEX
  8
72_ARTEK_AKFURNITURE_D2_CH_SEA
 10
0.26323
 20
0.136871
 30
0
  0
VERTEX
  8
72_ARTEK_AKFURNITURE_D2_CH_SEA
 10
0.250265
 20
0.136884
 30
0
  0
VERTEX
  8
72_ARTEK_AKFURNITURE_D2_CH_SEA
 10
0.243354
 20
0.136897
 30
0
  0
VERTEX
  8
72_ARTEK_AKFURNITURE_D2_CH_SEA
 10
0.233918
 20
0.136922
 30
0
  0
VERTEX
  8
72_ARTEK_AKFURNITURE_D2_CH_SEA
 10
0.221948
 20
0.136956
 30
0
  0
VERTEX
  8
72_ARTEK_AKFURNITURE_D2_CH_SEA
 10
0.208426
 20
0.137003
 30
0
  0
VERTEX
  8
72_ARTEK_AKFURNITURE_D2_CH_SEA
 10
0.15426
 20
0.137325
 30
0
  0
VERTEX
  8
72_ARTEK_AKFURNITURE_D2_CH_SEA
 10
0.127843
 20
0.137559
 30
0
  0
VERTEX
  8
72_ARTEK_AKFURNITURE_D2_CH_SEA
 10
0.117129
 20
0.137662
 30
0
  0
VERTEX
  8
72_ARTEK_AKFURNITURE_D2_CH_SEA
 10
0.108633
 20
0.137747
 30
0
  0
VERTEX
  8
72_ARTEK_AKFURNITURE_D2_CH_SEA
 10
0.095684
 20
0.137888
 30
0
  0
VERTEX
  8
72_ARTEK_AKFURNITURE_D2_CH_SEA
 10
0.0845282
 20
0.138015
 30
0
  0
VERTEX
  8
72_ARTEK_AKFURNITURE_D2_CH_SEA
 10
0.0737767
 20
0.13814
 30
0
  0
VERTEX
  8
72_ARTEK_AKFURNITURE_D2_CH_SEA
 10
0.0642208
 20
0.138246
 30
0
  0
VERTEX
  8
72_ARTEK_AKFURNITURE_D2_CH_SEA
 10
0.058108
 20
0.138302
 30
0
  0
VERTEX
  8
72_ARTEK_AKFURNITURE_D2_CH_SEA
 10
0.0529362
 20
0.138343
 30
0
  0
VERTEX
  8
72_ARTEK_AKFURNITURE_D2_CH_SEA
 10
0.0482872
 20
0.138377
 30
0
  0
VERTEX
  8
72_ARTEK_AKFURNITURE_D2_CH_SEA
 10
0.0453635
 20
0.138385
 30
0
  0
VERTEX
  8
72_ARTEK_AKFURNITURE_D2_CH_SEA
 10
0.0403249
 20
0.138429
 30
0
  0
VERTEX
  8
72_ARTEK_AKFURNITURE_D2_CH_SEA
 10
0.0332951
 20
0.138942
 30
0
  0
VERTEX
  8
72_ARTEK_AKFURNITURE_D2_CH_SEA
 10
0.0287007
 20
0.139763
 30
0
  0
VERTEX
  8
72_ARTEK_AKFURNITURE_D2_CH_SEA
 10
0.0226754
 20
0.142138
 30
0
  0
VERTEX
  8
72_ARTEK_AKFURNITURE_D2_CH_SEA
 10
0.0204692
 20
0.144499
 30
0
  0
VERTEX
  8
72_ARTEK_AKFURNITURE_D2_CH_SEA
 10
0.0201845
 20
0.145161
 30
0
  0
VERTEX
  8
72_ARTEK_AKFURNITURE_D2_CH_SEA
 10
0.0194143
 20
0.148442
 30
0
  0
VERTEX
  8
72_ARTEK_AKFURNITURE_D2_CH_SEA
 10
0.0191862
 20
0.149661
 30
0
  0
VERTEX
  8
72_ARTEK_AKFURNITURE_D2_CH_SEA
 10
0.0191401
 20
0.148782
 30
0
  0
VERTEX
  8
72_ARTEK_AKFURNITURE_D2_CH_SEA
 10
0.019138
 20
0.146059
 30
0
  0
VERTEX
  8
72_ARTEK_AKFURNITURE_D2_CH_SEA
 10
0.0191359
 20
0.136433
 30
0
  0
VERTEX
  8
72_ARTEK_AKFURNITURE_D2_CH_SEA
 10
0.0191359
 20
0.117955
 30
0
  0
VERTEX
  8
72_ARTEK_AKFURNITURE_D2_CH_SEA
 10
0.0191359
 20
0.0440422
 30
0
  0
VERTEX
  8
72_ARTEK_AKFURNITURE_D2_CH_SEA
 10
0.0191359
 20
-0.103784
 30
0
  0
VERTEX
  8
72_ARTEK_AKFURNITURE_D2_CH_SEA
 10
0.0191359
 20
-0.25161
 30
0
  0
VERTEX
  8
72_ARTEK_AKFURNITURE_D2_CH_SEA
 10
0.0191359
 20
-0.325523
 30
0
  0
VERTEX
  8
72_ARTEK_AKFURNITURE_D2_CH_SEA
 10
0.0191359
 20
-0.334762
 30
0
  0
VERTEX
  8
72_ARTEK_AKFURNITURE_D2_CH_SEA
 10
0.0191514
 20
-0.341828
 30
0
  0
VERTEX
  8
72_ARTEK_AKFURNITURE_D2_CH_SEA
 10
0.0200525
 20
-0.345493
 30
0
  0
VERTEX
  8
72_ARTEK_AKFURNITURE_D2_CH_SEA
 10
0.0202625
 20
-0.346848
 30
0
  0
VERTEX
  8
72_ARTEK_AKFURNITURE_D2_CH_SEA
 10
0.0215506
 20
-0.348378
 30
0
  0
VERTEX
  8
72_ARTEK_AKFURNITURE_D2_CH_SEA
 10
0.0242579
 20
-0.35015
 30
0
  0
VERTEX
  8
72_ARTEK_AKFURNITURE_D2_CH_SEA
 10
0.028107
 20
-0.351574
 30
0
  0
VERTEX
  8
72_ARTEK_AKFURNITURE_D2_CH_SEA
 10
0.0339908
 20
-0.352775
 30
0
  0
VERTEX
  8
72_ARTEK_AKFURNITURE_D2_CH_SEA
 10
0.0401409
 20
-0.353444
 30
0
  0
VERTEX
  8
72_ARTEK_AKFURNITURE_D2_CH_SEA
 10
0.0449967
 20
-0.353792
 30
0
  0
VERTEX
  8
72_ARTEK_AKFURNITURE_D2_CH_SEA
 10
0.0486544
 20
-0.35395
 30
0
  0
VERTEX
  8
72_ARTEK_AKFURNITURE_D2_CH_SEA
 10
0.0555858
 20
-0.35408
 30
0
  0
VERTEX
  8
72_ARTEK_AKFURNITURE_D2_CH_SEA
 10
0.0757543
 20
-0.354259
 30
0
  0
VERTEX
  8
72_ARTEK_AKFURNITURE_D2_CH_SEA
 10
0.0893247
 20
-0.354296
 30
0
  0
VERTEX
  8
72_ARTEK_AKFURNITURE_D2_CH_SEA
 10
0.105166
 20
-0.354317
 30
0
  0
VERTEX
  8
72_ARTEK_AKFURNITURE_D2_CH_SEA
 10
0.113358
 20
-0.354319
 30
0
  0
VERTEX
  8
72_ARTEK_AKFURNITURE_D2_CH_SEA
 10
0.117455
 20
-0.35432
 30
0
  0
VERTEX
  8
72_ARTEK_AKFURNITURE_D2_CH_SEA
 10
0.118918
 20
-0.35432
 30
0
  0
VERTEX
  8
72_ARTEK_AKFURNITURE_D2_CH_SEA
 10
0.122411
 20
-0.354322
 30
0
  0
VERTEX
  8
72_ARTEK_AKFURNITURE_D2_CH_SEA
 10
0.128081
 20
-0.354324
 30
0
  0
VERTEX
  8
72_ARTEK_AKFURNITURE_D2_CH_SEA
 10
0.135926
 20
-0.354328
 30
0
  0
VERTEX
  8
72_ARTEK_AKFURNITURE_D2_CH_SEA
 10
0.153383
 20
-0.354337
 30
0
  0
VERTEX
  8
72_ARTEK_AKFURNITURE_D2_CH_SEA
 10
0.166628
 20
-0.354346
 30
0
  0
VERTEX
  8
72_ARTEK_AKFURNITURE_D2_CH_SEA
 10
0.187839
 20
-0.354362
 30
0
  0
VERTEX
  8
72_ARTEK_AKFURNITURE_D2_CH_SEA
 10
0.230209
 20
-0.354391
 30
0
  0
SEQEND
  0
POLYLINE
  8
72_ARTEK_AKFURNITURE_D2SNAP
 66
     1
 70
     0
 10
0.0
 20
0.0
 30
0.0
  0
VERTEX
  8
72_ARTEK_AKFURNITURE_D2SNAP
 10
0.3155
 20
-0
 30
0
  0
VERTEX
  8
72_ARTEK_AKFURNITURE_D2SNAP
 10
0.31526
 20
0.00243863
 30
0
  0
VERTEX
  8
72_ARTEK_AKFURNITURE_D2SNAP
 10
0.314548
 20
0.00478354
 30
0
  0
VERTEX
  8
72_ARTEK_AKFURNITURE_D2SNAP
 10
0.313393
 20
0.00694463
 30
0
  0
VERTEX
  8
72_ARTEK_AKFURNITURE_D2SNAP
 10
0.311839
 20
0.00883883
 30
0
  0
VERTEX
  8
72_ARTEK_AKFURNITURE_D2SNAP
 10
0.309945
 20
0.0103934
 30
0
  0
VERTEX
  8
72_ARTEK_AKFURNITURE_D2SNAP
 10
0.307784
 20
0.0115485
 30
0
  0
VERTEX
  8
72_ARTEK_AKFURNITURE_D2SNAP
 10
0.305439
 20
0.0122598
 30
0
  0
VERTEX
  8
72_ARTEK_AKFURNITURE_D2SNAP
 10
0.303
 20
0.0125
 30
0
  0
VERTEX
  8
72_ARTEK_AKFURNITURE_D2SNAP
 10
0.300561
 20
0.0122598
 30
0
  0
VERTEX
  8
72_ARTEK_AKFURNITURE_D2SNAP
 10
0.298216
 20
0.0115485
 30
0
  0
VERTEX
  8
72_ARTEK_AKFURNITURE_D2SNAP
 10
0.296055
 20
0.0103934
 30
0
  0
VERTEX
  8
72_ARTEK_AKFURNITURE_D2SNAP
 10
0.294161
 20
0.00883883
 30
0
  0
VERTEX
  8
72_ARTEK_AKFURNITURE_D2SNAP
 10
0.292607
 20
0.00694463
 30
0
  0
VERTEX
  8
72_ARTEK_AKFURNITURE_D2SNAP
 10
0.291452
 20
0.00478354
 30
0
  0
VERTEX
  8
72_ARTEK_AKFURNITURE_D2SNAP
 10
0.29074
 20
0.00243863
 30
0
  0
VERTEX
  8
72_ARTEK_AKFURNITURE_D2SNAP
 10
0.2905
 20
3.15316e-018
 30
0
  0
VERTEX
  8
72_ARTEK_AKFURNITURE_D2SNAP
 10
0.29074
 20
-0.00243863
 30
0
  0
VERTEX
  8
72_ARTEK_AKFURNITURE_D2SNAP
 10
0.291452
 20
-0.00478354
 30
0
  0
VERTEX
  8
72_ARTEK_AKFURNITURE_D2SNAP
 10
0.292607
 20
-0.00694463
 30
0
  0
VERTEX
  8
72_ARTEK_AKFURNITURE_D2SNAP
 10
0.294161
 20
-0.00883883
 30
0
  0
VERTEX
  8
72_ARTEK_AKFURNITURE_D2SNAP
 10
0.296055
 20
-0.0103934
 30
0
  0
VERTEX
  8
72_ARTEK_AKFURNITURE_D2SNAP
 10
0.298216
 20
-0.0115485
 30
0
  0
VERTEX
  8
72_ARTEK_AKFURNITURE_D2SNAP
 10
0.300561
 20
-0.0122598
 30
0
  0
VERTEX
  8
72_ARTEK_AKFURNITURE_D2SNAP
 10
0.303
 20
-0.0125
 30
0
  0
VERTEX
  8
72_ARTEK_AKFURNITURE_D2SNAP
 10
0.305439
 20
-0.0122598
 30
0
  0
VERTEX
  8
72_ARTEK_AKFURNITURE_D2SNAP
 10
0.307784
 20
-0.0115485
 30
0
  0
VERTEX
  8
72_ARTEK_AKFURNITURE_D2SNAP
 10
0.309945
 20
-0.0103934
 30
0
  0
VERTEX
  8
72_ARTEK_AKFURNITURE_D2SNAP
 10
0.311839
 20
-0.00883883
 30
0
  0
VERTEX
  8
72_ARTEK_AKFURNITURE_D2SNAP
 10
0.313393
 20
-0.00694463
 30
0
  0
VERTEX
  8
72_ARTEK_AKFURNITURE_D2SNAP
 10
0.314548
 20
-0.00478354
 30
0
  0
VERTEX
  8
72_ARTEK_AKFURNITURE_D2SNAP
 10
0.31526
 20
-0.00243863
 30
0
  0
VERTEX
  8
72_ARTEK_AKFURNITURE_D2SNAP
 10
0.3155
 20
-0
 30
0
  0
SEQEND
  0
POLYLINE
  8
72_ARTEK_AKFURNITURE_D2SNAP
 66
     1
 70
     0
 10
0.0
 20
0.0
 30
0.0
  0
VERTEX
  8
72_ARTEK_AKFURNITURE_D2SNAP
 10
0.285322
 20
-0.0176777
 30
0
  0
VERTEX
  8
72_ARTEK_AKFURNITURE_D2SNAP
 10
0.320678
 20
0.0176777
 30
0
  0
SEQEND
  0
POLYLINE
  8
72_ARTEK_AKFURNITURE_D2SNAP
 66
     1
 70
     0
 10
0.0
 20
0.0
 30
0.0
  0
VERTEX
  8
72_ARTEK_AKFURNITURE_D2SNAP
 10
0.285322
 20
0.0176777
 30
0
  0
VERTEX
  8
72_ARTEK_AKFURNITURE_D2SNAP
 10
0.320678
 20
-0.0176777
 30
0
  0
SEQEND
  0
ENDBLK
  8
0
  0
BLOCK
  8
0
  2
OB2D__000001
 70
    64
 10
0.0
 20
0.0
 30
0.0
  3
OB2D__000001
  0
ENDBLK
  8
0
  0
ENDSEC
  0
SECTION
  2
ENTITIES
  0
INSERT
  8
72OFGO2D01_GRAFIK
  2
OB2D__000000
 10
0.0
 20
0.0
 30
0.0
  0
INSERT
  8
72OFGO2D01_GRAFIK
  2
OB2D__000001
 10
0.0
 20
0.0
 30
0.0
  0
ENDSEC
  0
EOF
