  0
SECTION
  2
HEADER
  9
$ACADVER
  1
AC1009
  9
$INSBASE
 10
0.0
 20
0.0
 30
0.0
  9
$EXTMIN
 10
-5.03
 20
-5.03
 30
-1.03
  9
$EXTMAX
 10
5.03
 20
5
 30
5.03
  0
ENDSEC
  0
SECTION
  2
TABLES
  0
TABLE
  2
LTYPE
 70
     2
  0
LTYPE
  2
CONTINUOUS
 70
    64
  3
________
 72
    65
 73
     0
 40
0.0
  0
LTYPE
  2
DASHED
 70
     0
  3
__ __ __
 72
    65
 73
     2
 40
0.75
 49
0.5
 49
-0.25
  0
LTYPE
  2
DOT
 70
     0
  3
. . . .
 72
    65
 73
     2
 40
0.25
 49
0.0
 49
-0.25
  0
LTYPE
  2
DASHDOT
 70
     0
  3
_ . _ .
 72
    65
 73
     4
 40
1.0
 49
0.5
 49
-0.25
 49
-0.0
 49
-0.25
  0
LTYPE
  2
DASHDOUBLEDOT
 70
     0
  3
__..__..
 72
    65
 73
     6
 40
1.25
 49
0.5
 49
-0.25
 49
-0.0
 49
-0.25
 49
-0.0
 49
-0.25
  0
LTYPE
  2
DASHTRIPLEDOT
 70
     0
  3
__...__...__
 72
    65
 73
     8
 40
1.5
 49
0.5
 49
-0.25
 49
-0.0
 49
-0.25
 49
-0.0
 49
-0.25
 49
-0.0
 49
-0.25
  0
ENDTAB
  0
TABLE
  2
LAYER
 70
    10
  0
LAYER
  2
0
 70
    64
 62
     7
  6
CONTINUOUS
  0
LAYER
  2
CEILING
 70
    64
 62
     7
  6
CONTINUOUS
  0
LAYER
  2
FLOORBLOCK
 70
    64
 62
     7
  6
CONTINUOUS
  0
LAYER
  2
FLOORHATCHING
 70
    64
 62
     7
  6
CONTINUOUS
  0
LAYER
  2
SNAP
 70
    64
 62
     7
  6
CONTINUOUS
  0
LAYER
  2
ATTACHPOINT
 70
    64
 62
     7
  6
CONTINUOUS
  0
LAYER
  2
72_ARTEK_AKFURNITURE_D2SNAP
 70
    64
 62
1
  6
CONTINUOUS
  0
LAYER
  2
72_ARTEK_AKFURNITURE_D2_CH_FOO
 70
    64
 62
18
  6
CONTINUOUS
  0
LAYER
  2
72_ARTEK_AKFURNITURE_D2_CH_SEA
 70
    64
 62
18
  6
CONTINUOUS
  0
LAYER
  2
72OFGO2D01_GRAFIK
 70
    64
 62
     1
  6
CONTINUOUS
  0
ENDTAB
  0
TABLE
  2
STYLE
 70
     1
  0
STYLE
  2
STANDARD
 70
     0
 40
0.0
 41
1.0
 50
0.0
 71
     0
 42
0.2
  3
txt
  4

  0
ENDTAB
  0
TABLE
  2
APPID
 70
    64
  0
APPID
  2
ACAD
 70
    64
  0
APPID
  2
OFML_10
 70
    64
  0
ENDTAB
  0
ENDSEC
  0
SECTION
  2
BLOCKS
  0
BLOCK
  8
0
  2
OB2D__000000
 70
    64
 10
0.0
 20
0.0
 30
0.0
  3
OB2D__000000
  0
POLYLINE
  8
72_ARTEK_AKFURNITURE_D2SNAP
 66
     1
 70
     0
 10
0.0
 20
0.0
 30
0.0
  0
VERTEX
  8
72_ARTEK_AKFURNITURE_D2SNAP
 10
-0.168831
 20
1.13951
 30
0
  0
VERTEX
  8
72_ARTEK_AKFURNITURE_D2SNAP
 10
-0.169071
 20
1.14195
 30
0
  0
VERTEX
  8
72_ARTEK_AKFURNITURE_D2SNAP
 10
-0.169782
 20
1.14429
 30
0
  0
VERTEX
  8
72_ARTEK_AKFURNITURE_D2SNAP
 10
-0.170937
 20
1.14645
 30
0
  0
VERTEX
  8
72_ARTEK_AKFURNITURE_D2SNAP
 10
-0.172492
 20
1.14835
 30
0
  0
VERTEX
  8
72_ARTEK_AKFURNITURE_D2SNAP
 10
-0.174386
 20
1.1499
 30
0
  0
VERTEX
  8
72_ARTEK_AKFURNITURE_D2SNAP
 10
-0.176547
 20
1.15105
 30
0
  0
VERTEX
  8
72_ARTEK_AKFURNITURE_D2SNAP
 10
-0.178892
 20
1.15177
 30
0
  0
VERTEX
  8
72_ARTEK_AKFURNITURE_D2SNAP
 10
-0.181331
 20
1.15201
 30
0
  0
VERTEX
  8
72_ARTEK_AKFURNITURE_D2SNAP
 10
-0.183769
 20
1.15177
 30
0
  0
VERTEX
  8
72_ARTEK_AKFURNITURE_D2SNAP
 10
-0.186114
 20
1.15105
 30
0
  0
VERTEX
  8
72_ARTEK_AKFURNITURE_D2SNAP
 10
-0.188275
 20
1.1499
 30
0
  0
VERTEX
  8
72_ARTEK_AKFURNITURE_D2SNAP
 10
-0.190169
 20
1.14835
 30
0
  0
VERTEX
  8
72_ARTEK_AKFURNITURE_D2SNAP
 10
-0.191724
 20
1.14645
 30
0
  0
VERTEX
  8
72_ARTEK_AKFURNITURE_D2SNAP
 10
-0.192879
 20
1.14429
 30
0
  0
VERTEX
  8
72_ARTEK_AKFURNITURE_D2SNAP
 10
-0.19359
 20
1.14195
 30
0
  0
VERTEX
  8
72_ARTEK_AKFURNITURE_D2SNAP
 10
-0.193831
 20
1.13951
 30
0
  0
VERTEX
  8
72_ARTEK_AKFURNITURE_D2SNAP
 10
-0.19359
 20
1.13707
 30
0
  0
VERTEX
  8
72_ARTEK_AKFURNITURE_D2SNAP
 10
-0.192879
 20
1.13472
 30
0
  0
VERTEX
  8
72_ARTEK_AKFURNITURE_D2SNAP
 10
-0.191724
 20
1.13256
 30
0
  0
VERTEX
  8
72_ARTEK_AKFURNITURE_D2SNAP
 10
-0.190169
 20
1.13067
 30
0
  0
VERTEX
  8
72_ARTEK_AKFURNITURE_D2SNAP
 10
-0.188275
 20
1.12911
 30
0
  0
VERTEX
  8
72_ARTEK_AKFURNITURE_D2SNAP
 10
-0.186114
 20
1.12796
 30
0
  0
VERTEX
  8
72_ARTEK_AKFURNITURE_D2SNAP
 10
-0.183769
 20
1.12725
 30
0
  0
VERTEX
  8
72_ARTEK_AKFURNITURE_D2SNAP
 10
-0.181331
 20
1.12701
 30
0
  0
VERTEX
  8
72_ARTEK_AKFURNITURE_D2SNAP
 10
-0.178892
 20
1.12725
 30
0
  0
VERTEX
  8
72_ARTEK_AKFURNITURE_D2SNAP
 10
-0.176547
 20
1.12796
 30
0
  0
VERTEX
  8
72_ARTEK_AKFURNITURE_D2SNAP
 10
-0.174386
 20
1.12911
 30
0
  0
VERTEX
  8
72_ARTEK_AKFURNITURE_D2SNAP
 10
-0.172492
 20
1.13067
 30
0
  0
VERTEX
  8
72_ARTEK_AKFURNITURE_D2SNAP
 10
-0.170937
 20
1.13256
 30
0
  0
VERTEX
  8
72_ARTEK_AKFURNITURE_D2SNAP
 10
-0.169782
 20
1.13472
 30
0
  0
VERTEX
  8
72_ARTEK_AKFURNITURE_D2SNAP
 10
-0.169071
 20
1.13707
 30
0
  0
VERTEX
  8
72_ARTEK_AKFURNITURE_D2SNAP
 10
-0.168831
 20
1.13951
 30
0
  0
SEQEND
  0
POLYLINE
  8
72_ARTEK_AKFURNITURE_D2SNAP
 66
     1
 70
     0
 10
0.0
 20
0.0
 30
0.0
  0
VERTEX
  8
72_ARTEK_AKFURNITURE_D2SNAP
 10
-0.199008
 20
1.12183
 30
0
  0
VERTEX
  8
72_ARTEK_AKFURNITURE_D2SNAP
 10
-0.163653
 20
1.15718
 30
0
  0
SEQEND
  0
POLYLINE
  8
72_ARTEK_AKFURNITURE_D2SNAP
 66
     1
 70
     0
 10
0.0
 20
0.0
 30
0.0
  0
VERTEX
  8
72_ARTEK_AKFURNITURE_D2SNAP
 10
-0.199008
 20
1.15718
 30
0
  0
VERTEX
  8
72_ARTEK_AKFURNITURE_D2SNAP
 10
-0.163653
 20
1.12183
 30
0
  0
SEQEND
  0
POLYLINE
  8
72_ARTEK_AKFURNITURE_D2_CH_FOO
 66
     1
 70
     0
 10
0.0
 20
0.0
 30
0.0
  0
VERTEX
  8
72_ARTEK_AKFURNITURE_D2_CH_FOO
 10
-0.484831
 20
1.39901
 30
0
  0
VERTEX
  8
72_ARTEK_AKFURNITURE_D2_CH_FOO
 10
-0.484831
 20
1.38401
 30
0
  0
VERTEX
  8
72_ARTEK_AKFURNITURE_D2_CH_FOO
 10
-0.484831
 20
1.38401
 30
0
  0
VERTEX
  8
72_ARTEK_AKFURNITURE_D2_CH_FOO
 10
-0.484677
 20
1.38245
 30
0
  0
VERTEX
  8
72_ARTEK_AKFURNITURE_D2_CH_FOO
 10
-0.484222
 20
1.38095
 30
0
  0
VERTEX
  8
72_ARTEK_AKFURNITURE_D2_CH_FOO
 10
-0.483482
 20
1.37956
 30
0
  0
VERTEX
  8
72_ARTEK_AKFURNITURE_D2_CH_FOO
 10
-0.482487
 20
1.37835
 30
0
  0
VERTEX
  8
72_ARTEK_AKFURNITURE_D2_CH_FOO
 10
-0.481275
 20
1.37736
 30
0
  0
VERTEX
  8
72_ARTEK_AKFURNITURE_D2_CH_FOO
 10
-0.479892
 20
1.37662
 30
0
  0
VERTEX
  8
72_ARTEK_AKFURNITURE_D2_CH_FOO
 10
-0.478391
 20
1.37616
 30
0
  0
VERTEX
  8
72_ARTEK_AKFURNITURE_D2_CH_FOO
 10
-0.476831
 20
1.37601
 30
0
  0
VERTEX
  8
72_ARTEK_AKFURNITURE_D2_CH_FOO
 10
-0.47527
 20
1.37616
 30
0
  0
VERTEX
  8
72_ARTEK_AKFURNITURE_D2_CH_FOO
 10
-0.473769
 20
1.37662
 30
0
  0
VERTEX
  8
72_ARTEK_AKFURNITURE_D2_CH_FOO
 10
-0.472386
 20
1.37736
 30
0
  0
VERTEX
  8
72_ARTEK_AKFURNITURE_D2_CH_FOO
 10
-0.471174
 20
1.37835
 30
0
  0
VERTEX
  8
72_ARTEK_AKFURNITURE_D2_CH_FOO
 10
-0.470179
 20
1.37956
 30
0
  0
VERTEX
  8
72_ARTEK_AKFURNITURE_D2_CH_FOO
 10
-0.46944
 20
1.38095
 30
0
  0
VERTEX
  8
72_ARTEK_AKFURNITURE_D2_CH_FOO
 10
-0.468984
 20
1.38245
 30
0
  0
VERTEX
  8
72_ARTEK_AKFURNITURE_D2_CH_FOO
 10
-0.468831
 20
1.38401
 30
0
  0
VERTEX
  8
72_ARTEK_AKFURNITURE_D2_CH_FOO
 10
-0.468831
 20
1.39901
 30
0
  0
VERTEX
  8
72_ARTEK_AKFURNITURE_D2_CH_FOO
 10
-0.468831
 20
1.39901
 30
0
  0
VERTEX
  8
72_ARTEK_AKFURNITURE_D2_CH_FOO
 10
-0.468984
 20
1.40057
 30
0
  0
VERTEX
  8
72_ARTEK_AKFURNITURE_D2_CH_FOO
 10
-0.46944
 20
1.40207
 30
0
  0
VERTEX
  8
72_ARTEK_AKFURNITURE_D2_CH_FOO
 10
-0.470179
 20
1.40345
 30
0
  0
VERTEX
  8
72_ARTEK_AKFURNITURE_D2_CH_FOO
 10
-0.471174
 20
1.40466
 30
0
  0
VERTEX
  8
72_ARTEK_AKFURNITURE_D2_CH_FOO
 10
-0.472386
 20
1.40566
 30
0
  0
VERTEX
  8
72_ARTEK_AKFURNITURE_D2_CH_FOO
 10
-0.473769
 20
1.4064
 30
0
  0
VERTEX
  8
72_ARTEK_AKFURNITURE_D2_CH_FOO
 10
-0.47527
 20
1.40685
 30
0
  0
VERTEX
  8
72_ARTEK_AKFURNITURE_D2_CH_FOO
 10
-0.476831
 20
1.40701
 30
0
  0
VERTEX
  8
72_ARTEK_AKFURNITURE_D2_CH_FOO
 10
-0.478391
 20
1.40685
 30
0
  0
VERTEX
  8
72_ARTEK_AKFURNITURE_D2_CH_FOO
 10
-0.479892
 20
1.4064
 30
0
  0
VERTEX
  8
72_ARTEK_AKFURNITURE_D2_CH_FOO
 10
-0.481275
 20
1.40566
 30
0
  0
VERTEX
  8
72_ARTEK_AKFURNITURE_D2_CH_FOO
 10
-0.482487
 20
1.40466
 30
0
  0
VERTEX
  8
72_ARTEK_AKFURNITURE_D2_CH_FOO
 10
-0.483482
 20
1.40345
 30
0
  0
VERTEX
  8
72_ARTEK_AKFURNITURE_D2_CH_FOO
 10
-0.484222
 20
1.40207
 30
0
  0
VERTEX
  8
72_ARTEK_AKFURNITURE_D2_CH_FOO
 10
-0.484677
 20
1.40057
 30
0
  0
VERTEX
  8
72_ARTEK_AKFURNITURE_D2_CH_FOO
 10
-0.484831
 20
1.39901
 30
0
  0
SEQEND
  0
POLYLINE
  8
72_ARTEK_AKFURNITURE_D2_CH_FOO
 66
     1
 70
     0
 10
0.0
 20
0.0
 30
0.0
  0
VERTEX
  8
72_ARTEK_AKFURNITURE_D2_CH_FOO
 10
-0.484831
 20
0.880005
 30
0
  0
VERTEX
  8
72_ARTEK_AKFURNITURE_D2_CH_FOO
 10
-0.484831
 20
0.895005
 30
0
  0
VERTEX
  8
72_ARTEK_AKFURNITURE_D2_CH_FOO
 10
-0.484831
 20
0.895005
 30
0
  0
VERTEX
  8
72_ARTEK_AKFURNITURE_D2_CH_FOO
 10
-0.484677
 20
0.896566
 30
0
  0
VERTEX
  8
72_ARTEK_AKFURNITURE_D2_CH_FOO
 10
-0.484222
 20
0.898067
 30
0
  0
VERTEX
  8
72_ARTEK_AKFURNITURE_D2_CH_FOO
 10
-0.483482
 20
0.89945
 30
0
  0
VERTEX
  8
72_ARTEK_AKFURNITURE_D2_CH_FOO
 10
-0.482487
 20
0.900662
 30
0
  0
VERTEX
  8
72_ARTEK_AKFURNITURE_D2_CH_FOO
 10
-0.481275
 20
0.901657
 30
0
  0
VERTEX
  8
72_ARTEK_AKFURNITURE_D2_CH_FOO
 10
-0.479892
 20
0.902396
 30
0
  0
VERTEX
  8
72_ARTEK_AKFURNITURE_D2_CH_FOO
 10
-0.478391
 20
0.902852
 30
0
  0
VERTEX
  8
72_ARTEK_AKFURNITURE_D2_CH_FOO
 10
-0.476831
 20
0.903005
 30
0
  0
VERTEX
  8
72_ARTEK_AKFURNITURE_D2_CH_FOO
 10
-0.47527
 20
0.902852
 30
0
  0
VERTEX
  8
72_ARTEK_AKFURNITURE_D2_CH_FOO
 10
-0.473769
 20
0.902396
 30
0
  0
VERTEX
  8
72_ARTEK_AKFURNITURE_D2_CH_FOO
 10
-0.472386
 20
0.901657
 30
0
  0
VERTEX
  8
72_ARTEK_AKFURNITURE_D2_CH_FOO
 10
-0.471174
 20
0.900662
 30
0
  0
VERTEX
  8
72_ARTEK_AKFURNITURE_D2_CH_FOO
 10
-0.470179
 20
0.89945
 30
0
  0
VERTEX
  8
72_ARTEK_AKFURNITURE_D2_CH_FOO
 10
-0.46944
 20
0.898067
 30
0
  0
VERTEX
  8
72_ARTEK_AKFURNITURE_D2_CH_FOO
 10
-0.468984
 20
0.896566
 30
0
  0
VERTEX
  8
72_ARTEK_AKFURNITURE_D2_CH_FOO
 10
-0.468831
 20
0.895005
 30
0
  0
VERTEX
  8
72_ARTEK_AKFURNITURE_D2_CH_FOO
 10
-0.468831
 20
0.880005
 30
0
  0
VERTEX
  8
72_ARTEK_AKFURNITURE_D2_CH_FOO
 10
-0.468831
 20
0.880005
 30
0
  0
VERTEX
  8
72_ARTEK_AKFURNITURE_D2_CH_FOO
 10
-0.468984
 20
0.878445
 30
0
  0
VERTEX
  8
72_ARTEK_AKFURNITURE_D2_CH_FOO
 10
-0.46944
 20
0.876944
 30
0
  0
VERTEX
  8
72_ARTEK_AKFURNITURE_D2_CH_FOO
 10
-0.470179
 20
0.875561
 30
0
  0
VERTEX
  8
72_ARTEK_AKFURNITURE_D2_CH_FOO
 10
-0.471174
 20
0.874348
 30
0
  0
VERTEX
  8
72_ARTEK_AKFURNITURE_D2_CH_FOO
 10
-0.472386
 20
0.873354
 30
0
  0
VERTEX
  8
72_ARTEK_AKFURNITURE_D2_CH_FOO
 10
-0.473769
 20
0.872614
 30
0
  0
VERTEX
  8
72_ARTEK_AKFURNITURE_D2_CH_FOO
 10
-0.47527
 20
0.872159
 30
0
  0
VERTEX
  8
72_ARTEK_AKFURNITURE_D2_CH_FOO
 10
-0.476831
 20
0.872005
 30
0
  0
VERTEX
  8
72_ARTEK_AKFURNITURE_D2_CH_FOO
 10
-0.478391
 20
0.872159
 30
0
  0
VERTEX
  8
72_ARTEK_AKFURNITURE_D2_CH_FOO
 10
-0.479892
 20
0.872614
 30
0
  0
VERTEX
  8
72_ARTEK_AKFURNITURE_D2_CH_FOO
 10
-0.481275
 20
0.873354
 30
0
  0
VERTEX
  8
72_ARTEK_AKFURNITURE_D2_CH_FOO
 10
-0.482487
 20
0.874348
 30
0
  0
VERTEX
  8
72_ARTEK_AKFURNITURE_D2_CH_FOO
 10
-0.483482
 20
0.875561
 30
0
  0
VERTEX
  8
72_ARTEK_AKFURNITURE_D2_CH_FOO
 10
-0.484222
 20
0.876944
 30
0
  0
VERTEX
  8
72_ARTEK_AKFURNITURE_D2_CH_FOO
 10
-0.484677
 20
0.878445
 30
0
  0
VERTEX
  8
72_ARTEK_AKFURNITURE_D2_CH_FOO
 10
-0.484831
 20
0.880005
 30
0
  0
SEQEND
  0
POLYLINE
  8
72_ARTEK_AKFURNITURE_D2_CH_FOO
 66
     1
 70
     0
 10
0.0
 20
0.0
 30
0.0
  0
VERTEX
  8
72_ARTEK_AKFURNITURE_D2_CH_FOO
 10
-0.468831
 20
1.38401
 30
0
  0
VERTEX
  8
72_ARTEK_AKFURNITURE_D2_CH_FOO
 10
-0.468984
 20
1.38245
 30
0
  0
VERTEX
  8
72_ARTEK_AKFURNITURE_D2_CH_FOO
 10
-0.46944
 20
1.38095
 30
0
  0
VERTEX
  8
72_ARTEK_AKFURNITURE_D2_CH_FOO
 10
-0.470179
 20
1.37956
 30
0
  0
VERTEX
  8
72_ARTEK_AKFURNITURE_D2_CH_FOO
 10
-0.471174
 20
1.37835
 30
0
  0
VERTEX
  8
72_ARTEK_AKFURNITURE_D2_CH_FOO
 10
-0.472386
 20
1.37736
 30
0
  0
VERTEX
  8
72_ARTEK_AKFURNITURE_D2_CH_FOO
 10
-0.473769
 20
1.37662
 30
0
  0
VERTEX
  8
72_ARTEK_AKFURNITURE_D2_CH_FOO
 10
-0.47527
 20
1.37616
 30
0
  0
VERTEX
  8
72_ARTEK_AKFURNITURE_D2_CH_FOO
 10
-0.476831
 20
1.37601
 30
0
  0
VERTEX
  8
72_ARTEK_AKFURNITURE_D2_CH_FOO
 10
-0.478391
 20
1.37616
 30
0
  0
VERTEX
  8
72_ARTEK_AKFURNITURE_D2_CH_FOO
 10
-0.479892
 20
1.37662
 30
0
  0
VERTEX
  8
72_ARTEK_AKFURNITURE_D2_CH_FOO
 10
-0.481275
 20
1.37736
 30
0
  0
VERTEX
  8
72_ARTEK_AKFURNITURE_D2_CH_FOO
 10
-0.482487
 20
1.37835
 30
0
  0
VERTEX
  8
72_ARTEK_AKFURNITURE_D2_CH_FOO
 10
-0.483482
 20
1.37956
 30
0
  0
VERTEX
  8
72_ARTEK_AKFURNITURE_D2_CH_FOO
 10
-0.484222
 20
1.38095
 30
0
  0
VERTEX
  8
72_ARTEK_AKFURNITURE_D2_CH_FOO
 10
-0.484677
 20
1.38245
 30
0
  0
VERTEX
  8
72_ARTEK_AKFURNITURE_D2_CH_FOO
 10
-0.484831
 20
1.38401
 30
0
  0
VERTEX
  8
72_ARTEK_AKFURNITURE_D2_CH_FOO
 10
-0.484831
 20
0.895005
 30
0
  0
VERTEX
  8
72_ARTEK_AKFURNITURE_D2_CH_FOO
 10
-0.484831
 20
0.895005
 30
0
  0
VERTEX
  8
72_ARTEK_AKFURNITURE_D2_CH_FOO
 10
-0.484677
 20
0.896566
 30
0
  0
VERTEX
  8
72_ARTEK_AKFURNITURE_D2_CH_FOO
 10
-0.484222
 20
0.898067
 30
0
  0
VERTEX
  8
72_ARTEK_AKFURNITURE_D2_CH_FOO
 10
-0.483482
 20
0.89945
 30
0
  0
VERTEX
  8
72_ARTEK_AKFURNITURE_D2_CH_FOO
 10
-0.482487
 20
0.900662
 30
0
  0
VERTEX
  8
72_ARTEK_AKFURNITURE_D2_CH_FOO
 10
-0.481275
 20
0.901657
 30
0
  0
VERTEX
  8
72_ARTEK_AKFURNITURE_D2_CH_FOO
 10
-0.479892
 20
0.902396
 30
0
  0
VERTEX
  8
72_ARTEK_AKFURNITURE_D2_CH_FOO
 10
-0.478391
 20
0.902852
 30
0
  0
VERTEX
  8
72_ARTEK_AKFURNITURE_D2_CH_FOO
 10
-0.476831
 20
0.903005
 30
0
  0
VERTEX
  8
72_ARTEK_AKFURNITURE_D2_CH_FOO
 10
-0.47527
 20
0.902852
 30
0
  0
VERTEX
  8
72_ARTEK_AKFURNITURE_D2_CH_FOO
 10
-0.473769
 20
0.902396
 30
0
  0
VERTEX
  8
72_ARTEK_AKFURNITURE_D2_CH_FOO
 10
-0.472386
 20
0.901657
 30
0
  0
VERTEX
  8
72_ARTEK_AKFURNITURE_D2_CH_FOO
 10
-0.471174
 20
0.900662
 30
0
  0
VERTEX
  8
72_ARTEK_AKFURNITURE_D2_CH_FOO
 10
-0.470179
 20
0.89945
 30
0
  0
VERTEX
  8
72_ARTEK_AKFURNITURE_D2_CH_FOO
 10
-0.46944
 20
0.898067
 30
0
  0
VERTEX
  8
72_ARTEK_AKFURNITURE_D2_CH_FOO
 10
-0.468984
 20
0.896566
 30
0
  0
VERTEX
  8
72_ARTEK_AKFURNITURE_D2_CH_FOO
 10
-0.468831
 20
0.895005
 30
0
  0
VERTEX
  8
72_ARTEK_AKFURNITURE_D2_CH_FOO
 10
-0.468831
 20
1.13151
 30
0
  0
VERTEX
  8
72_ARTEK_AKFURNITURE_D2_CH_FOO
 10
-0.463831
 20
1.13151
 30
0
  0
VERTEX
  8
72_ARTEK_AKFURNITURE_D2_CH_FOO
 10
-0.463831
 20
1.14751
 30
0
  0
VERTEX
  8
72_ARTEK_AKFURNITURE_D2_CH_FOO
 10
-0.468831
 20
1.14751
 30
0
  0
VERTEX
  8
72_ARTEK_AKFURNITURE_D2_CH_FOO
 10
-0.468831
 20
1.38401
 30
0
  0
SEQEND
  0
POLYLINE
  8
72_ARTEK_AKFURNITURE_D2_CH_FOO
 66
     1
 70
     0
 10
0.0
 20
0.0
 30
0.0
  0
VERTEX
  8
72_ARTEK_AKFURNITURE_D2_CH_FOO
 10
-0.468831
 20
0.895505
 30
0
  0
VERTEX
  8
72_ARTEK_AKFURNITURE_D2_CH_FOO
 10
-0.468831
 20
0.879505
 30
0
  0
VERTEX
  8
72_ARTEK_AKFURNITURE_D2_CH_FOO
 10
-0.463831
 20
0.879505
 30
0
  0
VERTEX
  8
72_ARTEK_AKFURNITURE_D2_CH_FOO
 10
-0.463831
 20
0.895505
 30
0
  0
VERTEX
  8
72_ARTEK_AKFURNITURE_D2_CH_FOO
 10
-0.468831
 20
0.895505
 30
0
  0
SEQEND
  0
POLYLINE
  8
72_ARTEK_AKFURNITURE_D2_CH_FOO
 66
     1
 70
     0
 10
0.0
 20
0.0
 30
0.0
  0
VERTEX
  8
72_ARTEK_AKFURNITURE_D2_CH_FOO
 10
-0.468831
 20
1.39951
 30
0
  0
VERTEX
  8
72_ARTEK_AKFURNITURE_D2_CH_FOO
 10
-0.468831
 20
1.38351
 30
0
  0
VERTEX
  8
72_ARTEK_AKFURNITURE_D2_CH_FOO
 10
-0.463831
 20
1.38351
 30
0
  0
VERTEX
  8
72_ARTEK_AKFURNITURE_D2_CH_FOO
 10
-0.463831
 20
1.39951
 30
0
  0
VERTEX
  8
72_ARTEK_AKFURNITURE_D2_CH_FOO
 10
-0.468831
 20
1.39951
 30
0
  0
SEQEND
  0
POLYLINE
  8
72_ARTEK_AKFURNITURE_D2_CH_FOO
 66
     1
 70
     0
 10
0.0
 20
0.0
 30
0.0
  0
VERTEX
  8
72_ARTEK_AKFURNITURE_D2_CH_FOO
 10
0.122169
 20
1.39901
 30
0
  0
VERTEX
  8
72_ARTEK_AKFURNITURE_D2_CH_FOO
 10
0.122169
 20
1.38401
 30
0
  0
VERTEX
  8
72_ARTEK_AKFURNITURE_D2_CH_FOO
 10
0.122169
 20
1.38401
 30
0
  0
VERTEX
  8
72_ARTEK_AKFURNITURE_D2_CH_FOO
 10
0.122016
 20
1.38245
 30
0
  0
VERTEX
  8
72_ARTEK_AKFURNITURE_D2_CH_FOO
 10
0.12156
 20
1.38095
 30
0
  0
VERTEX
  8
72_ARTEK_AKFURNITURE_D2_CH_FOO
 10
0.120821
 20
1.37956
 30
0
  0
VERTEX
  8
72_ARTEK_AKFURNITURE_D2_CH_FOO
 10
0.119826
 20
1.37835
 30
0
  0
VERTEX
  8
72_ARTEK_AKFURNITURE_D2_CH_FOO
 10
0.118614
 20
1.37736
 30
0
  0
VERTEX
  8
72_ARTEK_AKFURNITURE_D2_CH_FOO
 10
0.117231
 20
1.37662
 30
0
  0
VERTEX
  8
72_ARTEK_AKFURNITURE_D2_CH_FOO
 10
0.11573
 20
1.37616
 30
0
  0
VERTEX
  8
72_ARTEK_AKFURNITURE_D2_CH_FOO
 10
0.114169
 20
1.37601
 30
0
  0
VERTEX
  8
72_ARTEK_AKFURNITURE_D2_CH_FOO
 10
0.112609
 20
1.37616
 30
0
  0
VERTEX
  8
72_ARTEK_AKFURNITURE_D2_CH_FOO
 10
0.111108
 20
1.37662
 30
0
  0
VERTEX
  8
72_ARTEK_AKFURNITURE_D2_CH_FOO
 10
0.109725
 20
1.37736
 30
0
  0
VERTEX
  8
72_ARTEK_AKFURNITURE_D2_CH_FOO
 10
0.108513
 20
1.37835
 30
0
  0
VERTEX
  8
72_ARTEK_AKFURNITURE_D2_CH_FOO
 10
0.107518
 20
1.37956
 30
0
  0
VERTEX
  8
72_ARTEK_AKFURNITURE_D2_CH_FOO
 10
0.106778
 20
1.38095
 30
0
  0
VERTEX
  8
72_ARTEK_AKFURNITURE_D2_CH_FOO
 10
0.106323
 20
1.38245
 30
0
  0
VERTEX
  8
72_ARTEK_AKFURNITURE_D2_CH_FOO
 10
0.106169
 20
1.38401
 30
0
  0
VERTEX
  8
72_ARTEK_AKFURNITURE_D2_CH_FOO
 10
0.106169
 20
1.39901
 30
0
  0
VERTEX
  8
72_ARTEK_AKFURNITURE_D2_CH_FOO
 10
0.106169
 20
1.39901
 30
0
  0
VERTEX
  8
72_ARTEK_AKFURNITURE_D2_CH_FOO
 10
0.106323
 20
1.40057
 30
0
  0
VERTEX
  8
72_ARTEK_AKFURNITURE_D2_CH_FOO
 10
0.106778
 20
1.40207
 30
0
  0
VERTEX
  8
72_ARTEK_AKFURNITURE_D2_CH_FOO
 10
0.107518
 20
1.40345
 30
0
  0
VERTEX
  8
72_ARTEK_AKFURNITURE_D2_CH_FOO
 10
0.108513
 20
1.40466
 30
0
  0
VERTEX
  8
72_ARTEK_AKFURNITURE_D2_CH_FOO
 10
0.109725
 20
1.40566
 30
0
  0
VERTEX
  8
72_ARTEK_AKFURNITURE_D2_CH_FOO
 10
0.111108
 20
1.4064
 30
0
  0
VERTEX
  8
72_ARTEK_AKFURNITURE_D2_CH_FOO
 10
0.112609
 20
1.40685
 30
0
  0
VERTEX
  8
72_ARTEK_AKFURNITURE_D2_CH_FOO
 10
0.114169
 20
1.40701
 30
0
  0
VERTEX
  8
72_ARTEK_AKFURNITURE_D2_CH_FOO
 10
0.11573
 20
1.40685
 30
0
  0
VERTEX
  8
72_ARTEK_AKFURNITURE_D2_CH_FOO
 10
0.117231
 20
1.4064
 30
0
  0
VERTEX
  8
72_ARTEK_AKFURNITURE_D2_CH_FOO
 10
0.118614
 20
1.40566
 30
0
  0
VERTEX
  8
72_ARTEK_AKFURNITURE_D2_CH_FOO
 10
0.119826
 20
1.40466
 30
0
  0
VERTEX
  8
72_ARTEK_AKFURNITURE_D2_CH_FOO
 10
0.120821
 20
1.40345
 30
0
  0
VERTEX
  8
72_ARTEK_AKFURNITURE_D2_CH_FOO
 10
0.12156
 20
1.40207
 30
0
  0
VERTEX
  8
72_ARTEK_AKFURNITURE_D2_CH_FOO
 10
0.122016
 20
1.40057
 30
0
  0
VERTEX
  8
72_ARTEK_AKFURNITURE_D2_CH_FOO
 10
0.122169
 20
1.39901
 30
0
  0
SEQEND
  0
POLYLINE
  8
72_ARTEK_AKFURNITURE_D2_CH_FOO
 66
     1
 70
     0
 10
0.0
 20
0.0
 30
0.0
  0
VERTEX
  8
72_ARTEK_AKFURNITURE_D2_CH_FOO
 10
0.122169
 20
0.880005
 30
0
  0
VERTEX
  8
72_ARTEK_AKFURNITURE_D2_CH_FOO
 10
0.122169
 20
0.895005
 30
0
  0
VERTEX
  8
72_ARTEK_AKFURNITURE_D2_CH_FOO
 10
0.122169
 20
0.895005
 30
0
  0
VERTEX
  8
72_ARTEK_AKFURNITURE_D2_CH_FOO
 10
0.122016
 20
0.896566
 30
0
  0
VERTEX
  8
72_ARTEK_AKFURNITURE_D2_CH_FOO
 10
0.12156
 20
0.898067
 30
0
  0
VERTEX
  8
72_ARTEK_AKFURNITURE_D2_CH_FOO
 10
0.120821
 20
0.89945
 30
0
  0
VERTEX
  8
72_ARTEK_AKFURNITURE_D2_CH_FOO
 10
0.119826
 20
0.900662
 30
0
  0
VERTEX
  8
72_ARTEK_AKFURNITURE_D2_CH_FOO
 10
0.118614
 20
0.901657
 30
0
  0
VERTEX
  8
72_ARTEK_AKFURNITURE_D2_CH_FOO
 10
0.117231
 20
0.902396
 30
0
  0
VERTEX
  8
72_ARTEK_AKFURNITURE_D2_CH_FOO
 10
0.11573
 20
0.902852
 30
0
  0
VERTEX
  8
72_ARTEK_AKFURNITURE_D2_CH_FOO
 10
0.114169
 20
0.903005
 30
0
  0
VERTEX
  8
72_ARTEK_AKFURNITURE_D2_CH_FOO
 10
0.112609
 20
0.902852
 30
0
  0
VERTEX
  8
72_ARTEK_AKFURNITURE_D2_CH_FOO
 10
0.111108
 20
0.902396
 30
0
  0
VERTEX
  8
72_ARTEK_AKFURNITURE_D2_CH_FOO
 10
0.109725
 20
0.901657
 30
0
  0
VERTEX
  8
72_ARTEK_AKFURNITURE_D2_CH_FOO
 10
0.108513
 20
0.900662
 30
0
  0
VERTEX
  8
72_ARTEK_AKFURNITURE_D2_CH_FOO
 10
0.107518
 20
0.89945
 30
0
  0
VERTEX
  8
72_ARTEK_AKFURNITURE_D2_CH_FOO
 10
0.106778
 20
0.898067
 30
0
  0
VERTEX
  8
72_ARTEK_AKFURNITURE_D2_CH_FOO
 10
0.106323
 20
0.896566
 30
0
  0
VERTEX
  8
72_ARTEK_AKFURNITURE_D2_CH_FOO
 10
0.106169
 20
0.895005
 30
0
  0
VERTEX
  8
72_ARTEK_AKFURNITURE_D2_CH_FOO
 10
0.106169
 20
0.880005
 30
0
  0
VERTEX
  8
72_ARTEK_AKFURNITURE_D2_CH_FOO
 10
0.106169
 20
0.880005
 30
0
  0
VERTEX
  8
72_ARTEK_AKFURNITURE_D2_CH_FOO
 10
0.106323
 20
0.878445
 30
0
  0
VERTEX
  8
72_ARTEK_AKFURNITURE_D2_CH_FOO
 10
0.106778
 20
0.876944
 30
0
  0
VERTEX
  8
72_ARTEK_AKFURNITURE_D2_CH_FOO
 10
0.107518
 20
0.875561
 30
0
  0
VERTEX
  8
72_ARTEK_AKFURNITURE_D2_CH_FOO
 10
0.108513
 20
0.874348
 30
0
  0
VERTEX
  8
72_ARTEK_AKFURNITURE_D2_CH_FOO
 10
0.109725
 20
0.873354
 30
0
  0
VERTEX
  8
72_ARTEK_AKFURNITURE_D2_CH_FOO
 10
0.111108
 20
0.872614
 30
0
  0
VERTEX
  8
72_ARTEK_AKFURNITURE_D2_CH_FOO
 10
0.112609
 20
0.872159
 30
0
  0
VERTEX
  8
72_ARTEK_AKFURNITURE_D2_CH_FOO
 10
0.114169
 20
0.872005
 30
0
  0
VERTEX
  8
72_ARTEK_AKFURNITURE_D2_CH_FOO
 10
0.11573
 20
0.872159
 30
0
  0
VERTEX
  8
72_ARTEK_AKFURNITURE_D2_CH_FOO
 10
0.117231
 20
0.872614
 30
0
  0
VERTEX
  8
72_ARTEK_AKFURNITURE_D2_CH_FOO
 10
0.118614
 20
0.873354
 30
0
  0
VERTEX
  8
72_ARTEK_AKFURNITURE_D2_CH_FOO
 10
0.119826
 20
0.874348
 30
0
  0
VERTEX
  8
72_ARTEK_AKFURNITURE_D2_CH_FOO
 10
0.120821
 20
0.875561
 30
0
  0
VERTEX
  8
72_ARTEK_AKFURNITURE_D2_CH_FOO
 10
0.12156
 20
0.876944
 30
0
  0
VERTEX
  8
72_ARTEK_AKFURNITURE_D2_CH_FOO
 10
0.122016
 20
0.878445
 30
0
  0
VERTEX
  8
72_ARTEK_AKFURNITURE_D2_CH_FOO
 10
0.122169
 20
0.880005
 30
0
  0
SEQEND
  0
POLYLINE
  8
72_ARTEK_AKFURNITURE_D2_CH_FOO
 66
     1
 70
     0
 10
0.0
 20
0.0
 30
0.0
  0
VERTEX
  8
72_ARTEK_AKFURNITURE_D2_CH_FOO
 10
0.106169
 20
1.38401
 30
0
  0
VERTEX
  8
72_ARTEK_AKFURNITURE_D2_CH_FOO
 10
0.106323
 20
1.38245
 30
0
  0
VERTEX
  8
72_ARTEK_AKFURNITURE_D2_CH_FOO
 10
0.106778
 20
1.38095
 30
0
  0
VERTEX
  8
72_ARTEK_AKFURNITURE_D2_CH_FOO
 10
0.107518
 20
1.37956
 30
0
  0
VERTEX
  8
72_ARTEK_AKFURNITURE_D2_CH_FOO
 10
0.108513
 20
1.37835
 30
0
  0
VERTEX
  8
72_ARTEK_AKFURNITURE_D2_CH_FOO
 10
0.109725
 20
1.37736
 30
0
  0
VERTEX
  8
72_ARTEK_AKFURNITURE_D2_CH_FOO
 10
0.111108
 20
1.37662
 30
0
  0
VERTEX
  8
72_ARTEK_AKFURNITURE_D2_CH_FOO
 10
0.112609
 20
1.37616
 30
0
  0
VERTEX
  8
72_ARTEK_AKFURNITURE_D2_CH_FOO
 10
0.114169
 20
1.37601
 30
0
  0
VERTEX
  8
72_ARTEK_AKFURNITURE_D2_CH_FOO
 10
0.11573
 20
1.37616
 30
0
  0
VERTEX
  8
72_ARTEK_AKFURNITURE_D2_CH_FOO
 10
0.117231
 20
1.37662
 30
0
  0
VERTEX
  8
72_ARTEK_AKFURNITURE_D2_CH_FOO
 10
0.118614
 20
1.37736
 30
0
  0
VERTEX
  8
72_ARTEK_AKFURNITURE_D2_CH_FOO
 10
0.119826
 20
1.37835
 30
0
  0
VERTEX
  8
72_ARTEK_AKFURNITURE_D2_CH_FOO
 10
0.120821
 20
1.37956
 30
0
  0
VERTEX
  8
72_ARTEK_AKFURNITURE_D2_CH_FOO
 10
0.12156
 20
1.38095
 30
0
  0
VERTEX
  8
72_ARTEK_AKFURNITURE_D2_CH_FOO
 10
0.122016
 20
1.38245
 30
0
  0
VERTEX
  8
72_ARTEK_AKFURNITURE_D2_CH_FOO
 10
0.122169
 20
1.38401
 30
0
  0
VERTEX
  8
72_ARTEK_AKFURNITURE_D2_CH_FOO
 10
0.122169
 20
0.895005
 30
0
  0
VERTEX
  8
72_ARTEK_AKFURNITURE_D2_CH_FOO
 10
0.122169
 20
0.895005
 30
0
  0
VERTEX
  8
72_ARTEK_AKFURNITURE_D2_CH_FOO
 10
0.122016
 20
0.896566
 30
0
  0
VERTEX
  8
72_ARTEK_AKFURNITURE_D2_CH_FOO
 10
0.12156
 20
0.898067
 30
0
  0
VERTEX
  8
72_ARTEK_AKFURNITURE_D2_CH_FOO
 10
0.120821
 20
0.89945
 30
0
  0
VERTEX
  8
72_ARTEK_AKFURNITURE_D2_CH_FOO
 10
0.119826
 20
0.900662
 30
0
  0
VERTEX
  8
72_ARTEK_AKFURNITURE_D2_CH_FOO
 10
0.118614
 20
0.901657
 30
0
  0
VERTEX
  8
72_ARTEK_AKFURNITURE_D2_CH_FOO
 10
0.117231
 20
0.902396
 30
0
  0
VERTEX
  8
72_ARTEK_AKFURNITURE_D2_CH_FOO
 10
0.11573
 20
0.902852
 30
0
  0
VERTEX
  8
72_ARTEK_AKFURNITURE_D2_CH_FOO
 10
0.114169
 20
0.903005
 30
0
  0
VERTEX
  8
72_ARTEK_AKFURNITURE_D2_CH_FOO
 10
0.112609
 20
0.902852
 30
0
  0
VERTEX
  8
72_ARTEK_AKFURNITURE_D2_CH_FOO
 10
0.111108
 20
0.902396
 30
0
  0
VERTEX
  8
72_ARTEK_AKFURNITURE_D2_CH_FOO
 10
0.109725
 20
0.901657
 30
0
  0
VERTEX
  8
72_ARTEK_AKFURNITURE_D2_CH_FOO
 10
0.108513
 20
0.900662
 30
0
  0
VERTEX
  8
72_ARTEK_AKFURNITURE_D2_CH_FOO
 10
0.107518
 20
0.89945
 30
0
  0
VERTEX
  8
72_ARTEK_AKFURNITURE_D2_CH_FOO
 10
0.106778
 20
0.898067
 30
0
  0
VERTEX
  8
72_ARTEK_AKFURNITURE_D2_CH_FOO
 10
0.106323
 20
0.896566
 30
0
  0
VERTEX
  8
72_ARTEK_AKFURNITURE_D2_CH_FOO
 10
0.106169
 20
0.895005
 30
0
  0
VERTEX
  8
72_ARTEK_AKFURNITURE_D2_CH_FOO
 10
0.106169
 20
1.13151
 30
0
  0
VERTEX
  8
72_ARTEK_AKFURNITURE_D2_CH_FOO
 10
0.101169
 20
1.13151
 30
0
  0
VERTEX
  8
72_ARTEK_AKFURNITURE_D2_CH_FOO
 10
0.101169
 20
1.14751
 30
0
  0
VERTEX
  8
72_ARTEK_AKFURNITURE_D2_CH_FOO
 10
0.106169
 20
1.14751
 30
0
  0
VERTEX
  8
72_ARTEK_AKFURNITURE_D2_CH_FOO
 10
0.106169
 20
1.38401
 30
0
  0
SEQEND
  0
POLYLINE
  8
72_ARTEK_AKFURNITURE_D2_CH_FOO
 66
     1
 70
     0
 10
0.0
 20
0.0
 30
0.0
  0
VERTEX
  8
72_ARTEK_AKFURNITURE_D2_CH_FOO
 10
0.106169
 20
0.895505
 30
0
  0
VERTEX
  8
72_ARTEK_AKFURNITURE_D2_CH_FOO
 10
0.106169
 20
0.879505
 30
0
  0
VERTEX
  8
72_ARTEK_AKFURNITURE_D2_CH_FOO
 10
0.101169
 20
0.879505
 30
0
  0
VERTEX
  8
72_ARTEK_AKFURNITURE_D2_CH_FOO
 10
0.101169
 20
0.895505
 30
0
  0
VERTEX
  8
72_ARTEK_AKFURNITURE_D2_CH_FOO
 10
0.106169
 20
0.895505
 30
0
  0
SEQEND
  0
POLYLINE
  8
72_ARTEK_AKFURNITURE_D2_CH_FOO
 66
     1
 70
     0
 10
0.0
 20
0.0
 30
0.0
  0
VERTEX
  8
72_ARTEK_AKFURNITURE_D2_CH_FOO
 10
0.106169
 20
1.39951
 30
0
  0
VERTEX
  8
72_ARTEK_AKFURNITURE_D2_CH_FOO
 10
0.106169
 20
1.38351
 30
0
  0
VERTEX
  8
72_ARTEK_AKFURNITURE_D2_CH_FOO
 10
0.101169
 20
1.38351
 30
0
  0
VERTEX
  8
72_ARTEK_AKFURNITURE_D2_CH_FOO
 10
0.101169
 20
1.39951
 30
0
  0
VERTEX
  8
72_ARTEK_AKFURNITURE_D2_CH_FOO
 10
0.106169
 20
1.39951
 30
0
  0
SEQEND
  0
POLYLINE
  8
72_ARTEK_AKFURNITURE_D2SNAP
 66
     1
 70
     0
 10
0.0
 20
0.0
 30
0.0
  0
VERTEX
  8
72_ARTEK_AKFURNITURE_D2SNAP
 10
-0.168831
 20
1.13951
 30
0
  0
VERTEX
  8
72_ARTEK_AKFURNITURE_D2SNAP
 10
-0.169071
 20
1.14195
 30
0
  0
VERTEX
  8
72_ARTEK_AKFURNITURE_D2SNAP
 10
-0.169782
 20
1.14429
 30
0
  0
VERTEX
  8
72_ARTEK_AKFURNITURE_D2SNAP
 10
-0.170937
 20
1.14645
 30
0
  0
VERTEX
  8
72_ARTEK_AKFURNITURE_D2SNAP
 10
-0.172492
 20
1.14835
 30
0
  0
VERTEX
  8
72_ARTEK_AKFURNITURE_D2SNAP
 10
-0.174386
 20
1.1499
 30
0
  0
VERTEX
  8
72_ARTEK_AKFURNITURE_D2SNAP
 10
-0.176547
 20
1.15105
 30
0
  0
VERTEX
  8
72_ARTEK_AKFURNITURE_D2SNAP
 10
-0.178892
 20
1.15177
 30
0
  0
VERTEX
  8
72_ARTEK_AKFURNITURE_D2SNAP
 10
-0.181331
 20
1.15201
 30
0
  0
VERTEX
  8
72_ARTEK_AKFURNITURE_D2SNAP
 10
-0.183769
 20
1.15177
 30
0
  0
VERTEX
  8
72_ARTEK_AKFURNITURE_D2SNAP
 10
-0.186114
 20
1.15105
 30
0
  0
VERTEX
  8
72_ARTEK_AKFURNITURE_D2SNAP
 10
-0.188275
 20
1.1499
 30
0
  0
VERTEX
  8
72_ARTEK_AKFURNITURE_D2SNAP
 10
-0.190169
 20
1.14835
 30
0
  0
VERTEX
  8
72_ARTEK_AKFURNITURE_D2SNAP
 10
-0.191724
 20
1.14645
 30
0
  0
VERTEX
  8
72_ARTEK_AKFURNITURE_D2SNAP
 10
-0.192879
 20
1.14429
 30
0
  0
VERTEX
  8
72_ARTEK_AKFURNITURE_D2SNAP
 10
-0.19359
 20
1.14195
 30
0
  0
VERTEX
  8
72_ARTEK_AKFURNITURE_D2SNAP
 10
-0.193831
 20
1.13951
 30
0
  0
VERTEX
  8
72_ARTEK_AKFURNITURE_D2SNAP
 10
-0.19359
 20
1.13707
 30
0
  0
VERTEX
  8
72_ARTEK_AKFURNITURE_D2SNAP
 10
-0.192879
 20
1.13472
 30
0
  0
VERTEX
  8
72_ARTEK_AKFURNITURE_D2SNAP
 10
-0.191724
 20
1.13256
 30
0
  0
VERTEX
  8
72_ARTEK_AKFURNITURE_D2SNAP
 10
-0.190169
 20
1.13067
 30
0
  0
VERTEX
  8
72_ARTEK_AKFURNITURE_D2SNAP
 10
-0.188275
 20
1.12911
 30
0
  0
VERTEX
  8
72_ARTEK_AKFURNITURE_D2SNAP
 10
-0.186114
 20
1.12796
 30
0
  0
VERTEX
  8
72_ARTEK_AKFURNITURE_D2SNAP
 10
-0.183769
 20
1.12725
 30
0
  0
VERTEX
  8
72_ARTEK_AKFURNITURE_D2SNAP
 10
-0.181331
 20
1.12701
 30
0
  0
VERTEX
  8
72_ARTEK_AKFURNITURE_D2SNAP
 10
-0.178892
 20
1.12725
 30
0
  0
VERTEX
  8
72_ARTEK_AKFURNITURE_D2SNAP
 10
-0.176547
 20
1.12796
 30
0
  0
VERTEX
  8
72_ARTEK_AKFURNITURE_D2SNAP
 10
-0.174386
 20
1.12911
 30
0
  0
VERTEX
  8
72_ARTEK_AKFURNITURE_D2SNAP
 10
-0.172492
 20
1.13067
 30
0
  0
VERTEX
  8
72_ARTEK_AKFURNITURE_D2SNAP
 10
-0.170937
 20
1.13256
 30
0
  0
VERTEX
  8
72_ARTEK_AKFURNITURE_D2SNAP
 10
-0.169782
 20
1.13472
 30
0
  0
VERTEX
  8
72_ARTEK_AKFURNITURE_D2SNAP
 10
-0.169071
 20
1.13707
 30
0
  0
VERTEX
  8
72_ARTEK_AKFURNITURE_D2SNAP
 10
-0.168831
 20
1.13951
 30
0
  0
SEQEND
  0
POLYLINE
  8
72_ARTEK_AKFURNITURE_D2SNAP
 66
     1
 70
     0
 10
0.0
 20
0.0
 30
0.0
  0
VERTEX
  8
72_ARTEK_AKFURNITURE_D2SNAP
 10
-0.199008
 20
1.12183
 30
0
  0
VERTEX
  8
72_ARTEK_AKFURNITURE_D2SNAP
 10
-0.163653
 20
1.15718
 30
0
  0
SEQEND
  0
POLYLINE
  8
72_ARTEK_AKFURNITURE_D2SNAP
 66
     1
 70
     0
 10
0.0
 20
0.0
 30
0.0
  0
VERTEX
  8
72_ARTEK_AKFURNITURE_D2SNAP
 10
-0.199008
 20
1.15718
 30
0
  0
VERTEX
  8
72_ARTEK_AKFURNITURE_D2SNAP
 10
-0.163653
 20
1.12183
 30
0
  0
SEQEND
  0
POLYLINE
  8
72_ARTEK_AKFURNITURE_D2_CH_SEA
 66
     1
 70
     0
 10
0.0
 20
0.0
 30
0.0
  0
VERTEX
  8
72_ARTEK_AKFURNITURE_D2_CH_SEA
 10
0.100669
 20
1.36251
 30
0
  0
VERTEX
  8
72_ARTEK_AKFURNITURE_D2_CH_SEA
 10
0.100669
 20
0.983342
 30
0
  0
VERTEX
  8
72_ARTEK_AKFURNITURE_D2_CH_SEA
 10
0.100669
 20
0.935946
 30
0
  0
VERTEX
  8
72_ARTEK_AKFURNITURE_D2_CH_SEA
 10
0.100668
 20
0.912486
 30
0
  0
VERTEX
  8
72_ARTEK_AKFURNITURE_D2_CH_SEA
 10
0.100656
 20
0.903816
 30
0
  0
VERTEX
  8
72_ARTEK_AKFURNITURE_D2_CH_SEA
 10
0.100631
 20
0.898771
 30
0
  0
VERTEX
  8
72_ARTEK_AKFURNITURE_D2_CH_SEA
 10
0.100608
 20
0.895802
 30
0
  0
VERTEX
  8
72_ARTEK_AKFURNITURE_D2_CH_SEA
 10
0.100596
 20
0.894275
 30
0
  0
VERTEX
  8
72_ARTEK_AKFURNITURE_D2_CH_SEA
 10
0.100563
 20
0.890965
 30
0
  0
VERTEX
  8
72_ARTEK_AKFURNITURE_D2_CH_SEA
 10
0.100534
 20
0.888369
 30
0
  0
VERTEX
  8
72_ARTEK_AKFURNITURE_D2_CH_SEA
 10
0.100517
 20
0.886999
 30
0
  0
VERTEX
  8
72_ARTEK_AKFURNITURE_D2_CH_SEA
 10
0.10043
 20
0.882035
 30
0
  0
VERTEX
  8
72_ARTEK_AKFURNITURE_D2_CH_SEA
 10
0.100367
 20
0.878851
 30
0
  0
VERTEX
  8
72_ARTEK_AKFURNITURE_D2_CH_SEA
 10
0.100054
 20
0.8761
 30
0
  0
VERTEX
  8
72_ARTEK_AKFURNITURE_D2_CH_SEA
 10
0.0995957
 20
0.872582
 30
0
  0
VERTEX
  8
72_ARTEK_AKFURNITURE_D2_CH_SEA
 10
0.0990014
 20
0.870463
 30
0
  0
VERTEX
  8
72_ARTEK_AKFURNITURE_D2_CH_SEA
 10
0.0982739
 20
0.868774
 30
0
  0
VERTEX
  8
72_ARTEK_AKFURNITURE_D2_CH_SEA
 10
0.0961777
 20
0.867575
 30
0
  0
VERTEX
  8
72_ARTEK_AKFURNITURE_D2_CH_SEA
 10
0.0946058
 20
0.867031
 30
0
  0
VERTEX
  8
72_ARTEK_AKFURNITURE_D2_CH_SEA
 10
0.0917306
 20
0.866226
 30
0
  0
VERTEX
  8
72_ARTEK_AKFURNITURE_D2_CH_SEA
 10
0.0855314
 20
0.865119
 30
0
  0
VERTEX
  8
72_ARTEK_AKFURNITURE_D2_CH_SEA
 10
0.0764969
 20
0.864475
 30
0
  0
VERTEX
  8
72_ARTEK_AKFURNITURE_D2_CH_SEA
 10
0.0735645
 20
0.864357
 30
0
  0
VERTEX
  8
72_ARTEK_AKFURNITURE_D2_CH_SEA
 10
0.0677634
 20
0.864246
 30
0
  0
VERTEX
  8
72_ARTEK_AKFURNITURE_D2_CH_SEA
 10
0.0605189
 20
0.86414
 30
0
  0
VERTEX
  8
72_ARTEK_AKFURNITURE_D2_CH_SEA
 10
0.0554195
 20
0.864085
 30
0
  0
VERTEX
  8
72_ARTEK_AKFURNITURE_D2_CH_SEA
 10
0.0484086
 20
0.86403
 30
0
  0
VERTEX
  8
72_ARTEK_AKFURNITURE_D2_CH_SEA
 10
0.0330838
 20
0.863918
 30
0
  0
VERTEX
  8
72_ARTEK_AKFURNITURE_D2_CH_SEA
 10
0.015597
 20
0.863805
 30
0
  0
VERTEX
  8
72_ARTEK_AKFURNITURE_D2_CH_SEA
 10
-0.0234154
 20
0.863579
 30
0
  0
VERTEX
  8
72_ARTEK_AKFURNITURE_D2_CH_SEA
 10
-0.0624628
 20
0.863365
 30
0
  0
VERTEX
  8
72_ARTEK_AKFURNITURE_D2_CH_SEA
 10
-0.0729438
 20
0.863322
 30
0
  0
VERTEX
  8
72_ARTEK_AKFURNITURE_D2_CH_SEA
 10
-0.0796764
 20
0.863299
 30
0
  0
VERTEX
  8
72_ARTEK_AKFURNITURE_D2_CH_SEA
 10
-0.0875652
 20
0.863274
 30
0
  0
VERTEX
  8
72_ARTEK_AKFURNITURE_D2_CH_SEA
 10
-0.126015
 20
0.863184
 30
0
  0
VERTEX
  8
72_ARTEK_AKFURNITURE_D2_CH_SEA
 10
-0.204465
 20
0.863159
 30
0
  0
VERTEX
  8
72_ARTEK_AKFURNITURE_D2_CH_SEA
 10
-0.243691
 20
0.863195
 30
0
  0
VERTEX
  8
72_ARTEK_AKFURNITURE_D2_CH_SEA
 10
-0.263304
 20
0.86324
 30
0
  0
VERTEX
  8
72_ARTEK_AKFURNITURE_D2_CH_SEA
 10
-0.272666
 20
0.863267
 30
0
  0
VERTEX
  8
72_ARTEK_AKFURNITURE_D2_CH_SEA
 10
-0.28088
 20
0.863292
 30
0
  0
VERTEX
  8
72_ARTEK_AKFURNITURE_D2_CH_SEA
 10
-0.287938
 20
0.863316
 30
0
  0
VERTEX
  8
72_ARTEK_AKFURNITURE_D2_CH_SEA
 10
-0.29384
 20
0.863338
 30
0
  0
VERTEX
  8
72_ARTEK_AKFURNITURE_D2_CH_SEA
 10
-0.303715
 20
0.863382
 30
0
  0
VERTEX
  8
72_ARTEK_AKFURNITURE_D2_CH_SEA
 10
-0.323243
 20
0.863488
 30
0
  0
VERTEX
  8
72_ARTEK_AKFURNITURE_D2_CH_SEA
 10
-0.362255
 20
0.863712
 30
0
  0
VERTEX
  8
72_ARTEK_AKFURNITURE_D2_CH_SEA
 10
-0.381693
 20
0.863825
 30
0
  0
VERTEX
  8
72_ARTEK_AKFURNITURE_D2_CH_SEA
 10
-0.3985
 20
0.863938
 30
0
  0
VERTEX
  8
72_ARTEK_AKFURNITURE_D2_CH_SEA
 10
-0.413791
 20
0.86405
 30
0
  0
VERTEX
  8
72_ARTEK_AKFURNITURE_D2_CH_SEA
 10
-0.420136
 20
0.864105
 30
0
  0
VERTEX
  8
72_ARTEK_AKFURNITURE_D2_CH_SEA
 10
-0.424543
 20
0.864159
 30
0
  0
VERTEX
  8
72_ARTEK_AKFURNITURE_D2_CH_SEA
 10
-0.431712
 20
0.864266
 30
0
  0
VERTEX
  8
72_ARTEK_AKFURNITURE_D2_CH_SEA
 10
-0.436841
 20
0.864378
 30
0
  0
VERTEX
  8
72_ARTEK_AKFURNITURE_D2_CH_SEA
 10
-0.442269
 20
0.864627
 30
0
  0
VERTEX
  8
72_ARTEK_AKFURNITURE_D2_CH_SEA
 10
-0.450315
 20
0.865372
 30
0
  0
VERTEX
  8
72_ARTEK_AKFURNITURE_D2_CH_SEA
 10
-0.45591
 20
0.866639
 30
0
  0
VERTEX
  8
72_ARTEK_AKFURNITURE_D2_CH_SEA
 10
-0.458359
 20
0.867404
 30
0
  0
VERTEX
  8
72_ARTEK_AKFURNITURE_D2_CH_SEA
 10
-0.45952
 20
0.867876
 30
0
  0
VERTEX
  8
72_ARTEK_AKFURNITURE_D2_CH_SEA
 10
-0.461292
 20
0.869231
 30
0
  0
VERTEX
  8
72_ARTEK_AKFURNITURE_D2_CH_SEA
 10
-0.462403
 20
0.87333
 30
0
  0
VERTEX
  8
72_ARTEK_AKFURNITURE_D2_CH_SEA
 10
-0.463056
 20
0.88027
 30
0
  0
VERTEX
  8
72_ARTEK_AKFURNITURE_D2_CH_SEA
 10
-0.463151
 20
0.885189
 30
0
  0
VERTEX
  8
72_ARTEK_AKFURNITURE_D2_CH_SEA
 10
-0.463198
 20
0.888593
 30
0
  0
VERTEX
  8
72_ARTEK_AKFURNITURE_D2_CH_SEA
 10
-0.463261
 20
0.894672
 30
0
  0
VERTEX
  8
72_ARTEK_AKFURNITURE_D2_CH_SEA
 10
-0.463276
 20
0.896699
 30
0
  0
VERTEX
  8
72_ARTEK_AKFURNITURE_D2_CH_SEA
 10
-0.463302
 20
0.900206
 30
0
  0
VERTEX
  8
72_ARTEK_AKFURNITURE_D2_CH_SEA
 10
-0.463323
 20
0.906504
 30
0
  0
VERTEX
  8
72_ARTEK_AKFURNITURE_D2_CH_SEA
 10
-0.463331
 20
0.916502
 30
0
  0
VERTEX
  8
72_ARTEK_AKFURNITURE_D2_CH_SEA
 10
-0.463331
 20
1.29567
 30
0
  0
VERTEX
  8
72_ARTEK_AKFURNITURE_D2_CH_SEA
 10
-0.463331
 20
1.34307
 30
0
  0
VERTEX
  8
72_ARTEK_AKFURNITURE_D2_CH_SEA
 10
-0.46333
 20
1.36653
 30
0
  0
VERTEX
  8
72_ARTEK_AKFURNITURE_D2_CH_SEA
 10
-0.463317
 20
1.3752
 30
0
  0
VERTEX
  8
72_ARTEK_AKFURNITURE_D2_CH_SEA
 10
-0.463292
 20
1.38024
 30
0
  0
VERTEX
  8
72_ARTEK_AKFURNITURE_D2_CH_SEA
 10
-0.46327
 20
1.38321
 30
0
  0
VERTEX
  8
72_ARTEK_AKFURNITURE_D2_CH_SEA
 10
-0.463257
 20
1.38474
 30
0
  0
VERTEX
  8
72_ARTEK_AKFURNITURE_D2_CH_SEA
 10
-0.463224
 20
1.38805
 30
0
  0
VERTEX
  8
72_ARTEK_AKFURNITURE_D2_CH_SEA
 10
-0.463195
 20
1.39064
 30
0
  0
VERTEX
  8
72_ARTEK_AKFURNITURE_D2_CH_SEA
 10
-0.463178
 20
1.39201
 30
0
  0
VERTEX
  8
72_ARTEK_AKFURNITURE_D2_CH_SEA
 10
-0.463091
 20
1.39698
 30
0
  0
VERTEX
  8
72_ARTEK_AKFURNITURE_D2_CH_SEA
 10
-0.463029
 20
1.40016
 30
0
  0
VERTEX
  8
72_ARTEK_AKFURNITURE_D2_CH_SEA
 10
-0.462715
 20
1.40291
 30
0
  0
VERTEX
  8
72_ARTEK_AKFURNITURE_D2_CH_SEA
 10
-0.462257
 20
1.40643
 30
0
  0
VERTEX
  8
72_ARTEK_AKFURNITURE_D2_CH_SEA
 10
-0.461663
 20
1.40855
 30
0
  0
VERTEX
  8
72_ARTEK_AKFURNITURE_D2_CH_SEA
 10
-0.460935
 20
1.41024
 30
0
  0
VERTEX
  8
72_ARTEK_AKFURNITURE_D2_CH_SEA
 10
-0.458839
 20
1.41144
 30
0
  0
VERTEX
  8
72_ARTEK_AKFURNITURE_D2_CH_SEA
 10
-0.457267
 20
1.41198
 30
0
  0
VERTEX
  8
72_ARTEK_AKFURNITURE_D2_CH_SEA
 10
-0.454392
 20
1.41279
 30
0
  0
VERTEX
  8
72_ARTEK_AKFURNITURE_D2_CH_SEA
 10
-0.448193
 20
1.41389
 30
0
  0
VERTEX
  8
72_ARTEK_AKFURNITURE_D2_CH_SEA
 10
-0.439158
 20
1.41454
 30
0
  0
VERTEX
  8
72_ARTEK_AKFURNITURE_D2_CH_SEA
 10
-0.436226
 20
1.41466
 30
0
  0
VERTEX
  8
72_ARTEK_AKFURNITURE_D2_CH_SEA
 10
-0.430425
 20
1.41477
 30
0
  0
VERTEX
  8
72_ARTEK_AKFURNITURE_D2_CH_SEA
 10
-0.42318
 20
1.41487
 30
0
  0
VERTEX
  8
72_ARTEK_AKFURNITURE_D2_CH_SEA
 10
-0.418081
 20
1.41493
 30
0
  0
VERTEX
  8
72_ARTEK_AKFURNITURE_D2_CH_SEA
 10
-0.411071
 20
1.41498
 30
0
  0
VERTEX
  8
72_ARTEK_AKFURNITURE_D2_CH_SEA
 10
-0.395746
 20
1.4151
 30
0
  0
VERTEX
  8
72_ARTEK_AKFURNITURE_D2_CH_SEA
 10
-0.378259
 20
1.41521
 30
0
  0
VERTEX
  8
72_ARTEK_AKFURNITURE_D2_CH_SEA
 10
-0.339247
 20
1.41543
 30
0
  0
VERTEX
  8
72_ARTEK_AKFURNITURE_D2_CH_SEA
 10
-0.3002
 20
1.41565
 30
0
  0
VERTEX
  8
72_ARTEK_AKFURNITURE_D2_CH_SEA
 10
-0.289719
 20
1.41569
 30
0
  0
VERTEX
  8
72_ARTEK_AKFURNITURE_D2_CH_SEA
 10
-0.282986
 20
1.41571
 30
0
  0
VERTEX
  8
72_ARTEK_AKFURNITURE_D2_CH_SEA
 10
-0.275098
 20
1.41574
 30
0
  0
VERTEX
  8
72_ARTEK_AKFURNITURE_D2_CH_SEA
 10
-0.236648
 20
1.41583
 30
0
  0
VERTEX
  8
72_ARTEK_AKFURNITURE_D2_CH_SEA
 10
-0.158198
 20
1.41585
 30
0
  0
VERTEX
  8
72_ARTEK_AKFURNITURE_D2_CH_SEA
 10
-0.118972
 20
1.41582
 30
0
  0
VERTEX
  8
72_ARTEK_AKFURNITURE_D2_CH_SEA
 10
-0.0993595
 20
1.41577
 30
0
  0
VERTEX
  8
72_ARTEK_AKFURNITURE_D2_CH_SEA
 10
-0.0899975
 20
1.41575
 30
0
  0
VERTEX
  8
72_ARTEK_AKFURNITURE_D2_CH_SEA
 10
-0.0817829
 20
1.41572
 30
0
  0
VERTEX
  8
72_ARTEK_AKFURNITURE_D2_CH_SEA
 10
-0.0747244
 20
1.4157
 30
0
  0
VERTEX
  8
72_ARTEK_AKFURNITURE_D2_CH_SEA
 10
-0.0688221
 20
1.41567
 30
0
  0
VERTEX
  8
72_ARTEK_AKFURNITURE_D2_CH_SEA
 10
-0.0589472
 20
1.41563
 30
0
  0
VERTEX
  8
72_ARTEK_AKFURNITURE_D2_CH_SEA
 10
-0.0394195
 20
1.41553
 30
0
  0
VERTEX
  8
72_ARTEK_AKFURNITURE_D2_CH_SEA
 10
-0.000407082
 20
1.4153
 30
0
  0
VERTEX
  8
72_ARTEK_AKFURNITURE_D2_CH_SEA
 10
0.0190305
 20
1.41519
 30
0
  0
VERTEX
  8
72_ARTEK_AKFURNITURE_D2_CH_SEA
 10
0.0358381
 20
1.41508
 30
0
  0
VERTEX
  8
72_ARTEK_AKFURNITURE_D2_CH_SEA
 10
0.051129
 20
1.41496
 30
0
  0
VERTEX
  8
72_ARTEK_AKFURNITURE_D2_CH_SEA
 10
0.0574742
 20
1.41491
 30
0
  0
VERTEX
  8
72_ARTEK_AKFURNITURE_D2_CH_SEA
 10
0.0618818
 20
1.41485
 30
0
  0
VERTEX
  8
72_ARTEK_AKFURNITURE_D2_CH_SEA
 10
0.0690504
 20
1.41475
 30
0
  0
VERTEX
  8
72_ARTEK_AKFURNITURE_D2_CH_SEA
 10
0.0741797
 20
1.41463
 30
0
  0
VERTEX
  8
72_ARTEK_AKFURNITURE_D2_CH_SEA
 10
0.0796076
 20
1.41439
 30
0
  0
VERTEX
  8
72_ARTEK_AKFURNITURE_D2_CH_SEA
 10
0.087654
 20
1.41364
 30
0
  0
VERTEX
  8
72_ARTEK_AKFURNITURE_D2_CH_SEA
 10
0.0932488
 20
1.41237
 30
0
  0
VERTEX
  8
72_ARTEK_AKFURNITURE_D2_CH_SEA
 10
0.0956979
 20
1.41161
 30
0
  0
VERTEX
  8
72_ARTEK_AKFURNITURE_D2_CH_SEA
 10
0.0968586
 20
1.41114
 30
0
  0
VERTEX
  8
72_ARTEK_AKFURNITURE_D2_CH_SEA
 10
0.0986305
 20
1.40978
 30
0
  0
VERTEX
  8
72_ARTEK_AKFURNITURE_D2_CH_SEA
 10
0.0997417
 20
1.40568
 30
0
  0
VERTEX
  8
72_ARTEK_AKFURNITURE_D2_CH_SEA
 10
0.100395
 20
1.39874
 30
0
  0
VERTEX
  8
72_ARTEK_AKFURNITURE_D2_CH_SEA
 10
0.10049
 20
1.39382
 30
0
  0
VERTEX
  8
72_ARTEK_AKFURNITURE_D2_CH_SEA
 10
0.100537
 20
1.39042
 30
0
  0
VERTEX
  8
72_ARTEK_AKFURNITURE_D2_CH_SEA
 10
0.100599
 20
1.38434
 30
0
  0
VERTEX
  8
72_ARTEK_AKFURNITURE_D2_CH_SEA
 10
0.100615
 20
1.38231
 30
0
  0
VERTEX
  8
72_ARTEK_AKFURNITURE_D2_CH_SEA
 10
0.100641
 20
1.37881
 30
0
  0
VERTEX
  8
72_ARTEK_AKFURNITURE_D2_CH_SEA
 10
0.100662
 20
1.37251
 30
0
  0
VERTEX
  8
72_ARTEK_AKFURNITURE_D2_CH_SEA
 10
0.100669
 20
1.36251
 30
0
  0
SEQEND
  0
POLYLINE
  8
72_ARTEK_AKFURNITURE_D2SNAP
 66
     1
 70
     0
 10
0.0
 20
0.0
 30
0.0
  0
VERTEX
  8
72_ARTEK_AKFURNITURE_D2SNAP
 10
-0.168831
 20
1.13951
 30
0
  0
VERTEX
  8
72_ARTEK_AKFURNITURE_D2SNAP
 10
-0.169071
 20
1.14195
 30
0
  0
VERTEX
  8
72_ARTEK_AKFURNITURE_D2SNAP
 10
-0.169782
 20
1.14429
 30
0
  0
VERTEX
  8
72_ARTEK_AKFURNITURE_D2SNAP
 10
-0.170937
 20
1.14645
 30
0
  0
VERTEX
  8
72_ARTEK_AKFURNITURE_D2SNAP
 10
-0.172492
 20
1.14835
 30
0
  0
VERTEX
  8
72_ARTEK_AKFURNITURE_D2SNAP
 10
-0.174386
 20
1.1499
 30
0
  0
VERTEX
  8
72_ARTEK_AKFURNITURE_D2SNAP
 10
-0.176547
 20
1.15105
 30
0
  0
VERTEX
  8
72_ARTEK_AKFURNITURE_D2SNAP
 10
-0.178892
 20
1.15177
 30
0
  0
VERTEX
  8
72_ARTEK_AKFURNITURE_D2SNAP
 10
-0.181331
 20
1.15201
 30
0
  0
VERTEX
  8
72_ARTEK_AKFURNITURE_D2SNAP
 10
-0.183769
 20
1.15177
 30
0
  0
VERTEX
  8
72_ARTEK_AKFURNITURE_D2SNAP
 10
-0.186114
 20
1.15105
 30
0
  0
VERTEX
  8
72_ARTEK_AKFURNITURE_D2SNAP
 10
-0.188275
 20
1.1499
 30
0
  0
VERTEX
  8
72_ARTEK_AKFURNITURE_D2SNAP
 10
-0.190169
 20
1.14835
 30
0
  0
VERTEX
  8
72_ARTEK_AKFURNITURE_D2SNAP
 10
-0.191724
 20
1.14645
 30
0
  0
VERTEX
  8
72_ARTEK_AKFURNITURE_D2SNAP
 10
-0.192879
 20
1.14429
 30
0
  0
VERTEX
  8
72_ARTEK_AKFURNITURE_D2SNAP
 10
-0.19359
 20
1.14195
 30
0
  0
VERTEX
  8
72_ARTEK_AKFURNITURE_D2SNAP
 10
-0.193831
 20
1.13951
 30
0
  0
VERTEX
  8
72_ARTEK_AKFURNITURE_D2SNAP
 10
-0.19359
 20
1.13707
 30
0
  0
VERTEX
  8
72_ARTEK_AKFURNITURE_D2SNAP
 10
-0.192879
 20
1.13472
 30
0
  0
VERTEX
  8
72_ARTEK_AKFURNITURE_D2SNAP
 10
-0.191724
 20
1.13256
 30
0
  0
VERTEX
  8
72_ARTEK_AKFURNITURE_D2SNAP
 10
-0.190169
 20
1.13067
 30
0
  0
VERTEX
  8
72_ARTEK_AKFURNITURE_D2SNAP
 10
-0.188275
 20
1.12911
 30
0
  0
VERTEX
  8
72_ARTEK_AKFURNITURE_D2SNAP
 10
-0.186114
 20
1.12796
 30
0
  0
VERTEX
  8
72_ARTEK_AKFURNITURE_D2SNAP
 10
-0.183769
 20
1.12725
 30
0
  0
VERTEX
  8
72_ARTEK_AKFURNITURE_D2SNAP
 10
-0.181331
 20
1.12701
 30
0
  0
VERTEX
  8
72_ARTEK_AKFURNITURE_D2SNAP
 10
-0.178892
 20
1.12725
 30
0
  0
VERTEX
  8
72_ARTEK_AKFURNITURE_D2SNAP
 10
-0.176547
 20
1.12796
 30
0
  0
VERTEX
  8
72_ARTEK_AKFURNITURE_D2SNAP
 10
-0.174386
 20
1.12911
 30
0
  0
VERTEX
  8
72_ARTEK_AKFURNITURE_D2SNAP
 10
-0.172492
 20
1.13067
 30
0
  0
VERTEX
  8
72_ARTEK_AKFURNITURE_D2SNAP
 10
-0.170937
 20
1.13256
 30
0
  0
VERTEX
  8
72_ARTEK_AKFURNITURE_D2SNAP
 10
-0.169782
 20
1.13472
 30
0
  0
VERTEX
  8
72_ARTEK_AKFURNITURE_D2SNAP
 10
-0.169071
 20
1.13707
 30
0
  0
VERTEX
  8
72_ARTEK_AKFURNITURE_D2SNAP
 10
-0.168831
 20
1.13951
 30
0
  0
SEQEND
  0
POLYLINE
  8
72_ARTEK_AKFURNITURE_D2SNAP
 66
     1
 70
     0
 10
0.0
 20
0.0
 30
0.0
  0
VERTEX
  8
72_ARTEK_AKFURNITURE_D2SNAP
 10
-0.199008
 20
1.12183
 30
0
  0
VERTEX
  8
72_ARTEK_AKFURNITURE_D2SNAP
 10
-0.163653
 20
1.15718
 30
0
  0
SEQEND
  0
POLYLINE
  8
72_ARTEK_AKFURNITURE_D2SNAP
 66
     1
 70
     0
 10
0.0
 20
0.0
 30
0.0
  0
VERTEX
  8
72_ARTEK_AKFURNITURE_D2SNAP
 10
-0.199008
 20
1.15718
 30
0
  0
VERTEX
  8
72_ARTEK_AKFURNITURE_D2SNAP
 10
-0.163653
 20
1.12183
 30
0
  0
SEQEND
  0
POLYLINE
  8
72_ARTEK_AKFURNITURE_D2_CH_FOO
 66
     1
 70
     0
 10
0.0
 20
0.0
 30
0.0
  0
VERTEX
  8
72_ARTEK_AKFURNITURE_D2_CH_FOO
 10
-0.484831
 20
1.39901
 30
0
  0
VERTEX
  8
72_ARTEK_AKFURNITURE_D2_CH_FOO
 10
-0.484831
 20
1.38401
 30
0
  0
VERTEX
  8
72_ARTEK_AKFURNITURE_D2_CH_FOO
 10
-0.484831
 20
1.38401
 30
0
  0
VERTEX
  8
72_ARTEK_AKFURNITURE_D2_CH_FOO
 10
-0.484677
 20
1.38245
 30
0
  0
VERTEX
  8
72_ARTEK_AKFURNITURE_D2_CH_FOO
 10
-0.484222
 20
1.38095
 30
0
  0
VERTEX
  8
72_ARTEK_AKFURNITURE_D2_CH_FOO
 10
-0.483482
 20
1.37956
 30
0
  0
VERTEX
  8
72_ARTEK_AKFURNITURE_D2_CH_FOO
 10
-0.482487
 20
1.37835
 30
0
  0
VERTEX
  8
72_ARTEK_AKFURNITURE_D2_CH_FOO
 10
-0.481275
 20
1.37736
 30
0
  0
VERTEX
  8
72_ARTEK_AKFURNITURE_D2_CH_FOO
 10
-0.479892
 20
1.37662
 30
0
  0
VERTEX
  8
72_ARTEK_AKFURNITURE_D2_CH_FOO
 10
-0.478391
 20
1.37616
 30
0
  0
VERTEX
  8
72_ARTEK_AKFURNITURE_D2_CH_FOO
 10
-0.476831
 20
1.37601
 30
0
  0
VERTEX
  8
72_ARTEK_AKFURNITURE_D2_CH_FOO
 10
-0.47527
 20
1.37616
 30
0
  0
VERTEX
  8
72_ARTEK_AKFURNITURE_D2_CH_FOO
 10
-0.473769
 20
1.37662
 30
0
  0
VERTEX
  8
72_ARTEK_AKFURNITURE_D2_CH_FOO
 10
-0.472386
 20
1.37736
 30
0
  0
VERTEX
  8
72_ARTEK_AKFURNITURE_D2_CH_FOO
 10
-0.471174
 20
1.37835
 30
0
  0
VERTEX
  8
72_ARTEK_AKFURNITURE_D2_CH_FOO
 10
-0.470179
 20
1.37956
 30
0
  0
VERTEX
  8
72_ARTEK_AKFURNITURE_D2_CH_FOO
 10
-0.46944
 20
1.38095
 30
0
  0
VERTEX
  8
72_ARTEK_AKFURNITURE_D2_CH_FOO
 10
-0.468984
 20
1.38245
 30
0
  0
VERTEX
  8
72_ARTEK_AKFURNITURE_D2_CH_FOO
 10
-0.468831
 20
1.38401
 30
0
  0
VERTEX
  8
72_ARTEK_AKFURNITURE_D2_CH_FOO
 10
-0.468831
 20
1.39901
 30
0
  0
VERTEX
  8
72_ARTEK_AKFURNITURE_D2_CH_FOO
 10
-0.468831
 20
1.39901
 30
0
  0
VERTEX
  8
72_ARTEK_AKFURNITURE_D2_CH_FOO
 10
-0.468984
 20
1.40057
 30
0
  0
VERTEX
  8
72_ARTEK_AKFURNITURE_D2_CH_FOO
 10
-0.46944
 20
1.40207
 30
0
  0
VERTEX
  8
72_ARTEK_AKFURNITURE_D2_CH_FOO
 10
-0.470179
 20
1.40345
 30
0
  0
VERTEX
  8
72_ARTEK_AKFURNITURE_D2_CH_FOO
 10
-0.471174
 20
1.40466
 30
0
  0
VERTEX
  8
72_ARTEK_AKFURNITURE_D2_CH_FOO
 10
-0.472386
 20
1.40566
 30
0
  0
VERTEX
  8
72_ARTEK_AKFURNITURE_D2_CH_FOO
 10
-0.473769
 20
1.4064
 30
0
  0
VERTEX
  8
72_ARTEK_AKFURNITURE_D2_CH_FOO
 10
-0.47527
 20
1.40685
 30
0
  0
VERTEX
  8
72_ARTEK_AKFURNITURE_D2_CH_FOO
 10
-0.476831
 20
1.40701
 30
0
  0
VERTEX
  8
72_ARTEK_AKFURNITURE_D2_CH_FOO
 10
-0.478391
 20
1.40685
 30
0
  0
VERTEX
  8
72_ARTEK_AKFURNITURE_D2_CH_FOO
 10
-0.479892
 20
1.4064
 30
0
  0
VERTEX
  8
72_ARTEK_AKFURNITURE_D2_CH_FOO
 10
-0.481275
 20
1.40566
 30
0
  0
VERTEX
  8
72_ARTEK_AKFURNITURE_D2_CH_FOO
 10
-0.482487
 20
1.40466
 30
0
  0
VERTEX
  8
72_ARTEK_AKFURNITURE_D2_CH_FOO
 10
-0.483482
 20
1.40345
 30
0
  0
VERTEX
  8
72_ARTEK_AKFURNITURE_D2_CH_FOO
 10
-0.484222
 20
1.40207
 30
0
  0
VERTEX
  8
72_ARTEK_AKFURNITURE_D2_CH_FOO
 10
-0.484677
 20
1.40057
 30
0
  0
VERTEX
  8
72_ARTEK_AKFURNITURE_D2_CH_FOO
 10
-0.484831
 20
1.39901
 30
0
  0
SEQEND
  0
POLYLINE
  8
72_ARTEK_AKFURNITURE_D2_CH_FOO
 66
     1
 70
     0
 10
0.0
 20
0.0
 30
0.0
  0
VERTEX
  8
72_ARTEK_AKFURNITURE_D2_CH_FOO
 10
-0.484831
 20
0.880005
 30
0
  0
VERTEX
  8
72_ARTEK_AKFURNITURE_D2_CH_FOO
 10
-0.484831
 20
0.895005
 30
0
  0
VERTEX
  8
72_ARTEK_AKFURNITURE_D2_CH_FOO
 10
-0.484831
 20
0.895005
 30
0
  0
VERTEX
  8
72_ARTEK_AKFURNITURE_D2_CH_FOO
 10
-0.484677
 20
0.896566
 30
0
  0
VERTEX
  8
72_ARTEK_AKFURNITURE_D2_CH_FOO
 10
-0.484222
 20
0.898067
 30
0
  0
VERTEX
  8
72_ARTEK_AKFURNITURE_D2_CH_FOO
 10
-0.483482
 20
0.89945
 30
0
  0
VERTEX
  8
72_ARTEK_AKFURNITURE_D2_CH_FOO
 10
-0.482487
 20
0.900662
 30
0
  0
VERTEX
  8
72_ARTEK_AKFURNITURE_D2_CH_FOO
 10
-0.481275
 20
0.901657
 30
0
  0
VERTEX
  8
72_ARTEK_AKFURNITURE_D2_CH_FOO
 10
-0.479892
 20
0.902396
 30
0
  0
VERTEX
  8
72_ARTEK_AKFURNITURE_D2_CH_FOO
 10
-0.478391
 20
0.902852
 30
0
  0
VERTEX
  8
72_ARTEK_AKFURNITURE_D2_CH_FOO
 10
-0.476831
 20
0.903005
 30
0
  0
VERTEX
  8
72_ARTEK_AKFURNITURE_D2_CH_FOO
 10
-0.47527
 20
0.902852
 30
0
  0
VERTEX
  8
72_ARTEK_AKFURNITURE_D2_CH_FOO
 10
-0.473769
 20
0.902396
 30
0
  0
VERTEX
  8
72_ARTEK_AKFURNITURE_D2_CH_FOO
 10
-0.472386
 20
0.901657
 30
0
  0
VERTEX
  8
72_ARTEK_AKFURNITURE_D2_CH_FOO
 10
-0.471174
 20
0.900662
 30
0
  0
VERTEX
  8
72_ARTEK_AKFURNITURE_D2_CH_FOO
 10
-0.470179
 20
0.89945
 30
0
  0
VERTEX
  8
72_ARTEK_AKFURNITURE_D2_CH_FOO
 10
-0.46944
 20
0.898067
 30
0
  0
VERTEX
  8
72_ARTEK_AKFURNITURE_D2_CH_FOO
 10
-0.468984
 20
0.896566
 30
0
  0
VERTEX
  8
72_ARTEK_AKFURNITURE_D2_CH_FOO
 10
-0.468831
 20
0.895005
 30
0
  0
VERTEX
  8
72_ARTEK_AKFURNITURE_D2_CH_FOO
 10
-0.468831
 20
0.880005
 30
0
  0
VERTEX
  8
72_ARTEK_AKFURNITURE_D2_CH_FOO
 10
-0.468831
 20
0.880005
 30
0
  0
VERTEX
  8
72_ARTEK_AKFURNITURE_D2_CH_FOO
 10
-0.468984
 20
0.878445
 30
0
  0
VERTEX
  8
72_ARTEK_AKFURNITURE_D2_CH_FOO
 10
-0.46944
 20
0.876944
 30
0
  0
VERTEX
  8
72_ARTEK_AKFURNITURE_D2_CH_FOO
 10
-0.470179
 20
0.875561
 30
0
  0
VERTEX
  8
72_ARTEK_AKFURNITURE_D2_CH_FOO
 10
-0.471174
 20
0.874348
 30
0
  0
VERTEX
  8
72_ARTEK_AKFURNITURE_D2_CH_FOO
 10
-0.472386
 20
0.873354
 30
0
  0
VERTEX
  8
72_ARTEK_AKFURNITURE_D2_CH_FOO
 10
-0.473769
 20
0.872614
 30
0
  0
VERTEX
  8
72_ARTEK_AKFURNITURE_D2_CH_FOO
 10
-0.47527
 20
0.872159
 30
0
  0
VERTEX
  8
72_ARTEK_AKFURNITURE_D2_CH_FOO
 10
-0.476831
 20
0.872005
 30
0
  0
VERTEX
  8
72_ARTEK_AKFURNITURE_D2_CH_FOO
 10
-0.478391
 20
0.872159
 30
0
  0
VERTEX
  8
72_ARTEK_AKFURNITURE_D2_CH_FOO
 10
-0.479892
 20
0.872614
 30
0
  0
VERTEX
  8
72_ARTEK_AKFURNITURE_D2_CH_FOO
 10
-0.481275
 20
0.873354
 30
0
  0
VERTEX
  8
72_ARTEK_AKFURNITURE_D2_CH_FOO
 10
-0.482487
 20
0.874348
 30
0
  0
VERTEX
  8
72_ARTEK_AKFURNITURE_D2_CH_FOO
 10
-0.483482
 20
0.875561
 30
0
  0
VERTEX
  8
72_ARTEK_AKFURNITURE_D2_CH_FOO
 10
-0.484222
 20
0.876944
 30
0
  0
VERTEX
  8
72_ARTEK_AKFURNITURE_D2_CH_FOO
 10
-0.484677
 20
0.878445
 30
0
  0
VERTEX
  8
72_ARTEK_AKFURNITURE_D2_CH_FOO
 10
-0.484831
 20
0.880005
 30
0
  0
SEQEND
  0
POLYLINE
  8
72_ARTEK_AKFURNITURE_D2_CH_FOO
 66
     1
 70
     0
 10
0.0
 20
0.0
 30
0.0
  0
VERTEX
  8
72_ARTEK_AKFURNITURE_D2_CH_FOO
 10
-0.468831
 20
1.38401
 30
0
  0
VERTEX
  8
72_ARTEK_AKFURNITURE_D2_CH_FOO
 10
-0.468984
 20
1.38245
 30
0
  0
VERTEX
  8
72_ARTEK_AKFURNITURE_D2_CH_FOO
 10
-0.46944
 20
1.38095
 30
0
  0
VERTEX
  8
72_ARTEK_AKFURNITURE_D2_CH_FOO
 10
-0.470179
 20
1.37956
 30
0
  0
VERTEX
  8
72_ARTEK_AKFURNITURE_D2_CH_FOO
 10
-0.471174
 20
1.37835
 30
0
  0
VERTEX
  8
72_ARTEK_AKFURNITURE_D2_CH_FOO
 10
-0.472386
 20
1.37736
 30
0
  0
VERTEX
  8
72_ARTEK_AKFURNITURE_D2_CH_FOO
 10
-0.473769
 20
1.37662
 30
0
  0
VERTEX
  8
72_ARTEK_AKFURNITURE_D2_CH_FOO
 10
-0.47527
 20
1.37616
 30
0
  0
VERTEX
  8
72_ARTEK_AKFURNITURE_D2_CH_FOO
 10
-0.476831
 20
1.37601
 30
0
  0
VERTEX
  8
72_ARTEK_AKFURNITURE_D2_CH_FOO
 10
-0.478391
 20
1.37616
 30
0
  0
VERTEX
  8
72_ARTEK_AKFURNITURE_D2_CH_FOO
 10
-0.479892
 20
1.37662
 30
0
  0
VERTEX
  8
72_ARTEK_AKFURNITURE_D2_CH_FOO
 10
-0.481275
 20
1.37736
 30
0
  0
VERTEX
  8
72_ARTEK_AKFURNITURE_D2_CH_FOO
 10
-0.482487
 20
1.37835
 30
0
  0
VERTEX
  8
72_ARTEK_AKFURNITURE_D2_CH_FOO
 10
-0.483482
 20
1.37956
 30
0
  0
VERTEX
  8
72_ARTEK_AKFURNITURE_D2_CH_FOO
 10
-0.484222
 20
1.38095
 30
0
  0
VERTEX
  8
72_ARTEK_AKFURNITURE_D2_CH_FOO
 10
-0.484677
 20
1.38245
 30
0
  0
VERTEX
  8
72_ARTEK_AKFURNITURE_D2_CH_FOO
 10
-0.484831
 20
1.38401
 30
0
  0
VERTEX
  8
72_ARTEK_AKFURNITURE_D2_CH_FOO
 10
-0.484831
 20
0.895005
 30
0
  0
VERTEX
  8
72_ARTEK_AKFURNITURE_D2_CH_FOO
 10
-0.484831
 20
0.895005
 30
0
  0
VERTEX
  8
72_ARTEK_AKFURNITURE_D2_CH_FOO
 10
-0.484677
 20
0.896566
 30
0
  0
VERTEX
  8
72_ARTEK_AKFURNITURE_D2_CH_FOO
 10
-0.484222
 20
0.898067
 30
0
  0
VERTEX
  8
72_ARTEK_AKFURNITURE_D2_CH_FOO
 10
-0.483482
 20
0.89945
 30
0
  0
VERTEX
  8
72_ARTEK_AKFURNITURE_D2_CH_FOO
 10
-0.482487
 20
0.900662
 30
0
  0
VERTEX
  8
72_ARTEK_AKFURNITURE_D2_CH_FOO
 10
-0.481275
 20
0.901657
 30
0
  0
VERTEX
  8
72_ARTEK_AKFURNITURE_D2_CH_FOO
 10
-0.479892
 20
0.902396
 30
0
  0
VERTEX
  8
72_ARTEK_AKFURNITURE_D2_CH_FOO
 10
-0.478391
 20
0.902852
 30
0
  0
VERTEX
  8
72_ARTEK_AKFURNITURE_D2_CH_FOO
 10
-0.476831
 20
0.903005
 30
0
  0
VERTEX
  8
72_ARTEK_AKFURNITURE_D2_CH_FOO
 10
-0.47527
 20
0.902852
 30
0
  0
VERTEX
  8
72_ARTEK_AKFURNITURE_D2_CH_FOO
 10
-0.473769
 20
0.902396
 30
0
  0
VERTEX
  8
72_ARTEK_AKFURNITURE_D2_CH_FOO
 10
-0.472386
 20
0.901657
 30
0
  0
VERTEX
  8
72_ARTEK_AKFURNITURE_D2_CH_FOO
 10
-0.471174
 20
0.900662
 30
0
  0
VERTEX
  8
72_ARTEK_AKFURNITURE_D2_CH_FOO
 10
-0.470179
 20
0.89945
 30
0
  0
VERTEX
  8
72_ARTEK_AKFURNITURE_D2_CH_FOO
 10
-0.46944
 20
0.898067
 30
0
  0
VERTEX
  8
72_ARTEK_AKFURNITURE_D2_CH_FOO
 10
-0.468984
 20
0.896566
 30
0
  0
VERTEX
  8
72_ARTEK_AKFURNITURE_D2_CH_FOO
 10
-0.468831
 20
0.895005
 30
0
  0
VERTEX
  8
72_ARTEK_AKFURNITURE_D2_CH_FOO
 10
-0.468831
 20
1.13151
 30
0
  0
VERTEX
  8
72_ARTEK_AKFURNITURE_D2_CH_FOO
 10
-0.463831
 20
1.13151
 30
0
  0
VERTEX
  8
72_ARTEK_AKFURNITURE_D2_CH_FOO
 10
-0.463831
 20
1.14751
 30
0
  0
VERTEX
  8
72_ARTEK_AKFURNITURE_D2_CH_FOO
 10
-0.468831
 20
1.14751
 30
0
  0
VERTEX
  8
72_ARTEK_AKFURNITURE_D2_CH_FOO
 10
-0.468831
 20
1.38401
 30
0
  0
SEQEND
  0
POLYLINE
  8
72_ARTEK_AKFURNITURE_D2_CH_FOO
 66
     1
 70
     0
 10
0.0
 20
0.0
 30
0.0
  0
VERTEX
  8
72_ARTEK_AKFURNITURE_D2_CH_FOO
 10
-0.468831
 20
0.895505
 30
0
  0
VERTEX
  8
72_ARTEK_AKFURNITURE_D2_CH_FOO
 10
-0.468831
 20
0.879505
 30
0
  0
VERTEX
  8
72_ARTEK_AKFURNITURE_D2_CH_FOO
 10
-0.463831
 20
0.879505
 30
0
  0
VERTEX
  8
72_ARTEK_AKFURNITURE_D2_CH_FOO
 10
-0.463831
 20
0.895505
 30
0
  0
VERTEX
  8
72_ARTEK_AKFURNITURE_D2_CH_FOO
 10
-0.468831
 20
0.895505
 30
0
  0
SEQEND
  0
POLYLINE
  8
72_ARTEK_AKFURNITURE_D2_CH_FOO
 66
     1
 70
     0
 10
0.0
 20
0.0
 30
0.0
  0
VERTEX
  8
72_ARTEK_AKFURNITURE_D2_CH_FOO
 10
-0.468831
 20
1.39951
 30
0
  0
VERTEX
  8
72_ARTEK_AKFURNITURE_D2_CH_FOO
 10
-0.468831
 20
1.38351
 30
0
  0
VERTEX
  8
72_ARTEK_AKFURNITURE_D2_CH_FOO
 10
-0.463831
 20
1.38351
 30
0
  0
VERTEX
  8
72_ARTEK_AKFURNITURE_D2_CH_FOO
 10
-0.463831
 20
1.39951
 30
0
  0
VERTEX
  8
72_ARTEK_AKFURNITURE_D2_CH_FOO
 10
-0.468831
 20
1.39951
 30
0
  0
SEQEND
  0
POLYLINE
  8
72_ARTEK_AKFURNITURE_D2_CH_FOO
 66
     1
 70
     0
 10
0.0
 20
0.0
 30
0.0
  0
VERTEX
  8
72_ARTEK_AKFURNITURE_D2_CH_FOO
 10
0.122169
 20
1.39901
 30
0
  0
VERTEX
  8
72_ARTEK_AKFURNITURE_D2_CH_FOO
 10
0.122169
 20
1.38401
 30
0
  0
VERTEX
  8
72_ARTEK_AKFURNITURE_D2_CH_FOO
 10
0.122169
 20
1.38401
 30
0
  0
VERTEX
  8
72_ARTEK_AKFURNITURE_D2_CH_FOO
 10
0.122016
 20
1.38245
 30
0
  0
VERTEX
  8
72_ARTEK_AKFURNITURE_D2_CH_FOO
 10
0.12156
 20
1.38095
 30
0
  0
VERTEX
  8
72_ARTEK_AKFURNITURE_D2_CH_FOO
 10
0.120821
 20
1.37956
 30
0
  0
VERTEX
  8
72_ARTEK_AKFURNITURE_D2_CH_FOO
 10
0.119826
 20
1.37835
 30
0
  0
VERTEX
  8
72_ARTEK_AKFURNITURE_D2_CH_FOO
 10
0.118614
 20
1.37736
 30
0
  0
VERTEX
  8
72_ARTEK_AKFURNITURE_D2_CH_FOO
 10
0.117231
 20
1.37662
 30
0
  0
VERTEX
  8
72_ARTEK_AKFURNITURE_D2_CH_FOO
 10
0.11573
 20
1.37616
 30
0
  0
VERTEX
  8
72_ARTEK_AKFURNITURE_D2_CH_FOO
 10
0.114169
 20
1.37601
 30
0
  0
VERTEX
  8
72_ARTEK_AKFURNITURE_D2_CH_FOO
 10
0.112609
 20
1.37616
 30
0
  0
VERTEX
  8
72_ARTEK_AKFURNITURE_D2_CH_FOO
 10
0.111108
 20
1.37662
 30
0
  0
VERTEX
  8
72_ARTEK_AKFURNITURE_D2_CH_FOO
 10
0.109725
 20
1.37736
 30
0
  0
VERTEX
  8
72_ARTEK_AKFURNITURE_D2_CH_FOO
 10
0.108513
 20
1.37835
 30
0
  0
VERTEX
  8
72_ARTEK_AKFURNITURE_D2_CH_FOO
 10
0.107518
 20
1.37956
 30
0
  0
VERTEX
  8
72_ARTEK_AKFURNITURE_D2_CH_FOO
 10
0.106778
 20
1.38095
 30
0
  0
VERTEX
  8
72_ARTEK_AKFURNITURE_D2_CH_FOO
 10
0.106323
 20
1.38245
 30
0
  0
VERTEX
  8
72_ARTEK_AKFURNITURE_D2_CH_FOO
 10
0.106169
 20
1.38401
 30
0
  0
VERTEX
  8
72_ARTEK_AKFURNITURE_D2_CH_FOO
 10
0.106169
 20
1.39901
 30
0
  0
VERTEX
  8
72_ARTEK_AKFURNITURE_D2_CH_FOO
 10
0.106169
 20
1.39901
 30
0
  0
VERTEX
  8
72_ARTEK_AKFURNITURE_D2_CH_FOO
 10
0.106323
 20
1.40057
 30
0
  0
VERTEX
  8
72_ARTEK_AKFURNITURE_D2_CH_FOO
 10
0.106778
 20
1.40207
 30
0
  0
VERTEX
  8
72_ARTEK_AKFURNITURE_D2_CH_FOO
 10
0.107518
 20
1.40345
 30
0
  0
VERTEX
  8
72_ARTEK_AKFURNITURE_D2_CH_FOO
 10
0.108513
 20
1.40466
 30
0
  0
VERTEX
  8
72_ARTEK_AKFURNITURE_D2_CH_FOO
 10
0.109725
 20
1.40566
 30
0
  0
VERTEX
  8
72_ARTEK_AKFURNITURE_D2_CH_FOO
 10
0.111108
 20
1.4064
 30
0
  0
VERTEX
  8
72_ARTEK_AKFURNITURE_D2_CH_FOO
 10
0.112609
 20
1.40685
 30
0
  0
VERTEX
  8
72_ARTEK_AKFURNITURE_D2_CH_FOO
 10
0.114169
 20
1.40701
 30
0
  0
VERTEX
  8
72_ARTEK_AKFURNITURE_D2_CH_FOO
 10
0.11573
 20
1.40685
 30
0
  0
VERTEX
  8
72_ARTEK_AKFURNITURE_D2_CH_FOO
 10
0.117231
 20
1.4064
 30
0
  0
VERTEX
  8
72_ARTEK_AKFURNITURE_D2_CH_FOO
 10
0.118614
 20
1.40566
 30
0
  0
VERTEX
  8
72_ARTEK_AKFURNITURE_D2_CH_FOO
 10
0.119826
 20
1.40466
 30
0
  0
VERTEX
  8
72_ARTEK_AKFURNITURE_D2_CH_FOO
 10
0.120821
 20
1.40345
 30
0
  0
VERTEX
  8
72_ARTEK_AKFURNITURE_D2_CH_FOO
 10
0.12156
 20
1.40207
 30
0
  0
VERTEX
  8
72_ARTEK_AKFURNITURE_D2_CH_FOO
 10
0.122016
 20
1.40057
 30
0
  0
VERTEX
  8
72_ARTEK_AKFURNITURE_D2_CH_FOO
 10
0.122169
 20
1.39901
 30
0
  0
SEQEND
  0
POLYLINE
  8
72_ARTEK_AKFURNITURE_D2_CH_FOO
 66
     1
 70
     0
 10
0.0
 20
0.0
 30
0.0
  0
VERTEX
  8
72_ARTEK_AKFURNITURE_D2_CH_FOO
 10
0.122169
 20
0.880005
 30
0
  0
VERTEX
  8
72_ARTEK_AKFURNITURE_D2_CH_FOO
 10
0.122169
 20
0.895005
 30
0
  0
VERTEX
  8
72_ARTEK_AKFURNITURE_D2_CH_FOO
 10
0.122169
 20
0.895005
 30
0
  0
VERTEX
  8
72_ARTEK_AKFURNITURE_D2_CH_FOO
 10
0.122016
 20
0.896566
 30
0
  0
VERTEX
  8
72_ARTEK_AKFURNITURE_D2_CH_FOO
 10
0.12156
 20
0.898067
 30
0
  0
VERTEX
  8
72_ARTEK_AKFURNITURE_D2_CH_FOO
 10
0.120821
 20
0.89945
 30
0
  0
VERTEX
  8
72_ARTEK_AKFURNITURE_D2_CH_FOO
 10
0.119826
 20
0.900662
 30
0
  0
VERTEX
  8
72_ARTEK_AKFURNITURE_D2_CH_FOO
 10
0.118614
 20
0.901657
 30
0
  0
VERTEX
  8
72_ARTEK_AKFURNITURE_D2_CH_FOO
 10
0.117231
 20
0.902396
 30
0
  0
VERTEX
  8
72_ARTEK_AKFURNITURE_D2_CH_FOO
 10
0.11573
 20
0.902852
 30
0
  0
VERTEX
  8
72_ARTEK_AKFURNITURE_D2_CH_FOO
 10
0.114169
 20
0.903005
 30
0
  0
VERTEX
  8
72_ARTEK_AKFURNITURE_D2_CH_FOO
 10
0.112609
 20
0.902852
 30
0
  0
VERTEX
  8
72_ARTEK_AKFURNITURE_D2_CH_FOO
 10
0.111108
 20
0.902396
 30
0
  0
VERTEX
  8
72_ARTEK_AKFURNITURE_D2_CH_FOO
 10
0.109725
 20
0.901657
 30
0
  0
VERTEX
  8
72_ARTEK_AKFURNITURE_D2_CH_FOO
 10
0.108513
 20
0.900662
 30
0
  0
VERTEX
  8
72_ARTEK_AKFURNITURE_D2_CH_FOO
 10
0.107518
 20
0.89945
 30
0
  0
VERTEX
  8
72_ARTEK_AKFURNITURE_D2_CH_FOO
 10
0.106778
 20
0.898067
 30
0
  0
VERTEX
  8
72_ARTEK_AKFURNITURE_D2_CH_FOO
 10
0.106323
 20
0.896566
 30
0
  0
VERTEX
  8
72_ARTEK_AKFURNITURE_D2_CH_FOO
 10
0.106169
 20
0.895005
 30
0
  0
VERTEX
  8
72_ARTEK_AKFURNITURE_D2_CH_FOO
 10
0.106169
 20
0.880005
 30
0
  0
VERTEX
  8
72_ARTEK_AKFURNITURE_D2_CH_FOO
 10
0.106169
 20
0.880005
 30
0
  0
VERTEX
  8
72_ARTEK_AKFURNITURE_D2_CH_FOO
 10
0.106323
 20
0.878445
 30
0
  0
VERTEX
  8
72_ARTEK_AKFURNITURE_D2_CH_FOO
 10
0.106778
 20
0.876944
 30
0
  0
VERTEX
  8
72_ARTEK_AKFURNITURE_D2_CH_FOO
 10
0.107518
 20
0.875561
 30
0
  0
VERTEX
  8
72_ARTEK_AKFURNITURE_D2_CH_FOO
 10
0.108513
 20
0.874348
 30
0
  0
VERTEX
  8
72_ARTEK_AKFURNITURE_D2_CH_FOO
 10
0.109725
 20
0.873354
 30
0
  0
VERTEX
  8
72_ARTEK_AKFURNITURE_D2_CH_FOO
 10
0.111108
 20
0.872614
 30
0
  0
VERTEX
  8
72_ARTEK_AKFURNITURE_D2_CH_FOO
 10
0.112609
 20
0.872159
 30
0
  0
VERTEX
  8
72_ARTEK_AKFURNITURE_D2_CH_FOO
 10
0.114169
 20
0.872005
 30
0
  0
VERTEX
  8
72_ARTEK_AKFURNITURE_D2_CH_FOO
 10
0.11573
 20
0.872159
 30
0
  0
VERTEX
  8
72_ARTEK_AKFURNITURE_D2_CH_FOO
 10
0.117231
 20
0.872614
 30
0
  0
VERTEX
  8
72_ARTEK_AKFURNITURE_D2_CH_FOO
 10
0.118614
 20
0.873354
 30
0
  0
VERTEX
  8
72_ARTEK_AKFURNITURE_D2_CH_FOO
 10
0.119826
 20
0.874348
 30
0
  0
VERTEX
  8
72_ARTEK_AKFURNITURE_D2_CH_FOO
 10
0.120821
 20
0.875561
 30
0
  0
VERTEX
  8
72_ARTEK_AKFURNITURE_D2_CH_FOO
 10
0.12156
 20
0.876944
 30
0
  0
VERTEX
  8
72_ARTEK_AKFURNITURE_D2_CH_FOO
 10
0.122016
 20
0.878445
 30
0
  0
VERTEX
  8
72_ARTEK_AKFURNITURE_D2_CH_FOO
 10
0.122169
 20
0.880005
 30
0
  0
SEQEND
  0
POLYLINE
  8
72_ARTEK_AKFURNITURE_D2_CH_FOO
 66
     1
 70
     0
 10
0.0
 20
0.0
 30
0.0
  0
VERTEX
  8
72_ARTEK_AKFURNITURE_D2_CH_FOO
 10
0.106169
 20
1.38401
 30
0
  0
VERTEX
  8
72_ARTEK_AKFURNITURE_D2_CH_FOO
 10
0.106323
 20
1.38245
 30
0
  0
VERTEX
  8
72_ARTEK_AKFURNITURE_D2_CH_FOO
 10
0.106778
 20
1.38095
 30
0
  0
VERTEX
  8
72_ARTEK_AKFURNITURE_D2_CH_FOO
 10
0.107518
 20
1.37956
 30
0
  0
VERTEX
  8
72_ARTEK_AKFURNITURE_D2_CH_FOO
 10
0.108513
 20
1.37835
 30
0
  0
VERTEX
  8
72_ARTEK_AKFURNITURE_D2_CH_FOO
 10
0.109725
 20
1.37736
 30
0
  0
VERTEX
  8
72_ARTEK_AKFURNITURE_D2_CH_FOO
 10
0.111108
 20
1.37662
 30
0
  0
VERTEX
  8
72_ARTEK_AKFURNITURE_D2_CH_FOO
 10
0.112609
 20
1.37616
 30
0
  0
VERTEX
  8
72_ARTEK_AKFURNITURE_D2_CH_FOO
 10
0.114169
 20
1.37601
 30
0
  0
VERTEX
  8
72_ARTEK_AKFURNITURE_D2_CH_FOO
 10
0.11573
 20
1.37616
 30
0
  0
VERTEX
  8
72_ARTEK_AKFURNITURE_D2_CH_FOO
 10
0.117231
 20
1.37662
 30
0
  0
VERTEX
  8
72_ARTEK_AKFURNITURE_D2_CH_FOO
 10
0.118614
 20
1.37736
 30
0
  0
VERTEX
  8
72_ARTEK_AKFURNITURE_D2_CH_FOO
 10
0.119826
 20
1.37835
 30
0
  0
VERTEX
  8
72_ARTEK_AKFURNITURE_D2_CH_FOO
 10
0.120821
 20
1.37956
 30
0
  0
VERTEX
  8
72_ARTEK_AKFURNITURE_D2_CH_FOO
 10
0.12156
 20
1.38095
 30
0
  0
VERTEX
  8
72_ARTEK_AKFURNITURE_D2_CH_FOO
 10
0.122016
 20
1.38245
 30
0
  0
VERTEX
  8
72_ARTEK_AKFURNITURE_D2_CH_FOO
 10
0.122169
 20
1.38401
 30
0
  0
VERTEX
  8
72_ARTEK_AKFURNITURE_D2_CH_FOO
 10
0.122169
 20
0.895005
 30
0
  0
VERTEX
  8
72_ARTEK_AKFURNITURE_D2_CH_FOO
 10
0.122169
 20
0.895005
 30
0
  0
VERTEX
  8
72_ARTEK_AKFURNITURE_D2_CH_FOO
 10
0.122016
 20
0.896566
 30
0
  0
VERTEX
  8
72_ARTEK_AKFURNITURE_D2_CH_FOO
 10
0.12156
 20
0.898067
 30
0
  0
VERTEX
  8
72_ARTEK_AKFURNITURE_D2_CH_FOO
 10
0.120821
 20
0.89945
 30
0
  0
VERTEX
  8
72_ARTEK_AKFURNITURE_D2_CH_FOO
 10
0.119826
 20
0.900662
 30
0
  0
VERTEX
  8
72_ARTEK_AKFURNITURE_D2_CH_FOO
 10
0.118614
 20
0.901657
 30
0
  0
VERTEX
  8
72_ARTEK_AKFURNITURE_D2_CH_FOO
 10
0.117231
 20
0.902396
 30
0
  0
VERTEX
  8
72_ARTEK_AKFURNITURE_D2_CH_FOO
 10
0.11573
 20
0.902852
 30
0
  0
VERTEX
  8
72_ARTEK_AKFURNITURE_D2_CH_FOO
 10
0.114169
 20
0.903005
 30
0
  0
VERTEX
  8
72_ARTEK_AKFURNITURE_D2_CH_FOO
 10
0.112609
 20
0.902852
 30
0
  0
VERTEX
  8
72_ARTEK_AKFURNITURE_D2_CH_FOO
 10
0.111108
 20
0.902396
 30
0
  0
VERTEX
  8
72_ARTEK_AKFURNITURE_D2_CH_FOO
 10
0.109725
 20
0.901657
 30
0
  0
VERTEX
  8
72_ARTEK_AKFURNITURE_D2_CH_FOO
 10
0.108513
 20
0.900662
 30
0
  0
VERTEX
  8
72_ARTEK_AKFURNITURE_D2_CH_FOO
 10
0.107518
 20
0.89945
 30
0
  0
VERTEX
  8
72_ARTEK_AKFURNITURE_D2_CH_FOO
 10
0.106778
 20
0.898067
 30
0
  0
VERTEX
  8
72_ARTEK_AKFURNITURE_D2_CH_FOO
 10
0.106323
 20
0.896566
 30
0
  0
VERTEX
  8
72_ARTEK_AKFURNITURE_D2_CH_FOO
 10
0.106169
 20
0.895005
 30
0
  0
VERTEX
  8
72_ARTEK_AKFURNITURE_D2_CH_FOO
 10
0.106169
 20
1.13151
 30
0
  0
VERTEX
  8
72_ARTEK_AKFURNITURE_D2_CH_FOO
 10
0.101169
 20
1.13151
 30
0
  0
VERTEX
  8
72_ARTEK_AKFURNITURE_D2_CH_FOO
 10
0.101169
 20
1.14751
 30
0
  0
VERTEX
  8
72_ARTEK_AKFURNITURE_D2_CH_FOO
 10
0.106169
 20
1.14751
 30
0
  0
VERTEX
  8
72_ARTEK_AKFURNITURE_D2_CH_FOO
 10
0.106169
 20
1.38401
 30
0
  0
SEQEND
  0
POLYLINE
  8
72_ARTEK_AKFURNITURE_D2_CH_FOO
 66
     1
 70
     0
 10
0.0
 20
0.0
 30
0.0
  0
VERTEX
  8
72_ARTEK_AKFURNITURE_D2_CH_FOO
 10
0.106169
 20
0.895505
 30
0
  0
VERTEX
  8
72_ARTEK_AKFURNITURE_D2_CH_FOO
 10
0.106169
 20
0.879505
 30
0
  0
VERTEX
  8
72_ARTEK_AKFURNITURE_D2_CH_FOO
 10
0.101169
 20
0.879505
 30
0
  0
VERTEX
  8
72_ARTEK_AKFURNITURE_D2_CH_FOO
 10
0.101169
 20
0.895505
 30
0
  0
VERTEX
  8
72_ARTEK_AKFURNITURE_D2_CH_FOO
 10
0.106169
 20
0.895505
 30
0
  0
SEQEND
  0
POLYLINE
  8
72_ARTEK_AKFURNITURE_D2_CH_FOO
 66
     1
 70
     0
 10
0.0
 20
0.0
 30
0.0
  0
VERTEX
  8
72_ARTEK_AKFURNITURE_D2_CH_FOO
 10
0.106169
 20
1.39951
 30
0
  0
VERTEX
  8
72_ARTEK_AKFURNITURE_D2_CH_FOO
 10
0.106169
 20
1.38351
 30
0
  0
VERTEX
  8
72_ARTEK_AKFURNITURE_D2_CH_FOO
 10
0.101169
 20
1.38351
 30
0
  0
VERTEX
  8
72_ARTEK_AKFURNITURE_D2_CH_FOO
 10
0.101169
 20
1.39951
 30
0
  0
VERTEX
  8
72_ARTEK_AKFURNITURE_D2_CH_FOO
 10
0.106169
 20
1.39951
 30
0
  0
SEQEND
  0
POLYLINE
  8
72_ARTEK_AKFURNITURE_D2SNAP
 66
     1
 70
     0
 10
0.0
 20
0.0
 30
0.0
  0
VERTEX
  8
72_ARTEK_AKFURNITURE_D2SNAP
 10
-0.168831
 20
1.13951
 30
0
  0
VERTEX
  8
72_ARTEK_AKFURNITURE_D2SNAP
 10
-0.169071
 20
1.14195
 30
0
  0
VERTEX
  8
72_ARTEK_AKFURNITURE_D2SNAP
 10
-0.169782
 20
1.14429
 30
0
  0
VERTEX
  8
72_ARTEK_AKFURNITURE_D2SNAP
 10
-0.170937
 20
1.14645
 30
0
  0
VERTEX
  8
72_ARTEK_AKFURNITURE_D2SNAP
 10
-0.172492
 20
1.14835
 30
0
  0
VERTEX
  8
72_ARTEK_AKFURNITURE_D2SNAP
 10
-0.174386
 20
1.1499
 30
0
  0
VERTEX
  8
72_ARTEK_AKFURNITURE_D2SNAP
 10
-0.176547
 20
1.15105
 30
0
  0
VERTEX
  8
72_ARTEK_AKFURNITURE_D2SNAP
 10
-0.178892
 20
1.15177
 30
0
  0
VERTEX
  8
72_ARTEK_AKFURNITURE_D2SNAP
 10
-0.181331
 20
1.15201
 30
0
  0
VERTEX
  8
72_ARTEK_AKFURNITURE_D2SNAP
 10
-0.183769
 20
1.15177
 30
0
  0
VERTEX
  8
72_ARTEK_AKFURNITURE_D2SNAP
 10
-0.186114
 20
1.15105
 30
0
  0
VERTEX
  8
72_ARTEK_AKFURNITURE_D2SNAP
 10
-0.188275
 20
1.1499
 30
0
  0
VERTEX
  8
72_ARTEK_AKFURNITURE_D2SNAP
 10
-0.190169
 20
1.14835
 30
0
  0
VERTEX
  8
72_ARTEK_AKFURNITURE_D2SNAP
 10
-0.191724
 20
1.14645
 30
0
  0
VERTEX
  8
72_ARTEK_AKFURNITURE_D2SNAP
 10
-0.192879
 20
1.14429
 30
0
  0
VERTEX
  8
72_ARTEK_AKFURNITURE_D2SNAP
 10
-0.19359
 20
1.14195
 30
0
  0
VERTEX
  8
72_ARTEK_AKFURNITURE_D2SNAP
 10
-0.193831
 20
1.13951
 30
0
  0
VERTEX
  8
72_ARTEK_AKFURNITURE_D2SNAP
 10
-0.19359
 20
1.13707
 30
0
  0
VERTEX
  8
72_ARTEK_AKFURNITURE_D2SNAP
 10
-0.192879
 20
1.13472
 30
0
  0
VERTEX
  8
72_ARTEK_AKFURNITURE_D2SNAP
 10
-0.191724
 20
1.13256
 30
0
  0
VERTEX
  8
72_ARTEK_AKFURNITURE_D2SNAP
 10
-0.190169
 20
1.13067
 30
0
  0
VERTEX
  8
72_ARTEK_AKFURNITURE_D2SNAP
 10
-0.188275
 20
1.12911
 30
0
  0
VERTEX
  8
72_ARTEK_AKFURNITURE_D2SNAP
 10
-0.186114
 20
1.12796
 30
0
  0
VERTEX
  8
72_ARTEK_AKFURNITURE_D2SNAP
 10
-0.183769
 20
1.12725
 30
0
  0
VERTEX
  8
72_ARTEK_AKFURNITURE_D2SNAP
 10
-0.181331
 20
1.12701
 30
0
  0
VERTEX
  8
72_ARTEK_AKFURNITURE_D2SNAP
 10
-0.178892
 20
1.12725
 30
0
  0
VERTEX
  8
72_ARTEK_AKFURNITURE_D2SNAP
 10
-0.176547
 20
1.12796
 30
0
  0
VERTEX
  8
72_ARTEK_AKFURNITURE_D2SNAP
 10
-0.174386
 20
1.12911
 30
0
  0
VERTEX
  8
72_ARTEK_AKFURNITURE_D2SNAP
 10
-0.172492
 20
1.13067
 30
0
  0
VERTEX
  8
72_ARTEK_AKFURNITURE_D2SNAP
 10
-0.170937
 20
1.13256
 30
0
  0
VERTEX
  8
72_ARTEK_AKFURNITURE_D2SNAP
 10
-0.169782
 20
1.13472
 30
0
  0
VERTEX
  8
72_ARTEK_AKFURNITURE_D2SNAP
 10
-0.169071
 20
1.13707
 30
0
  0
VERTEX
  8
72_ARTEK_AKFURNITURE_D2SNAP
 10
-0.168831
 20
1.13951
 30
0
  0
SEQEND
  0
POLYLINE
  8
72_ARTEK_AKFURNITURE_D2SNAP
 66
     1
 70
     0
 10
0.0
 20
0.0
 30
0.0
  0
VERTEX
  8
72_ARTEK_AKFURNITURE_D2SNAP
 10
-0.199008
 20
1.12183
 30
0
  0
VERTEX
  8
72_ARTEK_AKFURNITURE_D2SNAP
 10
-0.163653
 20
1.15718
 30
0
  0
SEQEND
  0
POLYLINE
  8
72_ARTEK_AKFURNITURE_D2SNAP
 66
     1
 70
     0
 10
0.0
 20
0.0
 30
0.0
  0
VERTEX
  8
72_ARTEK_AKFURNITURE_D2SNAP
 10
-0.199008
 20
1.15718
 30
0
  0
VERTEX
  8
72_ARTEK_AKFURNITURE_D2SNAP
 10
-0.163653
 20
1.12183
 30
0
  0
SEQEND
  0
POLYLINE
  8
72_ARTEK_AKFURNITURE_D2_CH_SEA
 66
     1
 70
     0
 10
0.0
 20
0.0
 30
0.0
  0
VERTEX
  8
72_ARTEK_AKFURNITURE_D2_CH_SEA
 10
0.100669
 20
1.36251
 30
0
  0
VERTEX
  8
72_ARTEK_AKFURNITURE_D2_CH_SEA
 10
0.100669
 20
0.983342
 30
0
  0
VERTEX
  8
72_ARTEK_AKFURNITURE_D2_CH_SEA
 10
0.100669
 20
0.935946
 30
0
  0
VERTEX
  8
72_ARTEK_AKFURNITURE_D2_CH_SEA
 10
0.100668
 20
0.912486
 30
0
  0
VERTEX
  8
72_ARTEK_AKFURNITURE_D2_CH_SEA
 10
0.100656
 20
0.903816
 30
0
  0
VERTEX
  8
72_ARTEK_AKFURNITURE_D2_CH_SEA
 10
0.100631
 20
0.898771
 30
0
  0
VERTEX
  8
72_ARTEK_AKFURNITURE_D2_CH_SEA
 10
0.100608
 20
0.895802
 30
0
  0
VERTEX
  8
72_ARTEK_AKFURNITURE_D2_CH_SEA
 10
0.100596
 20
0.894275
 30
0
  0
VERTEX
  8
72_ARTEK_AKFURNITURE_D2_CH_SEA
 10
0.100563
 20
0.890965
 30
0
  0
VERTEX
  8
72_ARTEK_AKFURNITURE_D2_CH_SEA
 10
0.100534
 20
0.888369
 30
0
  0
VERTEX
  8
72_ARTEK_AKFURNITURE_D2_CH_SEA
 10
0.100517
 20
0.886999
 30
0
  0
VERTEX
  8
72_ARTEK_AKFURNITURE_D2_CH_SEA
 10
0.10043
 20
0.882035
 30
0
  0
VERTEX
  8
72_ARTEK_AKFURNITURE_D2_CH_SEA
 10
0.100367
 20
0.878851
 30
0
  0
VERTEX
  8
72_ARTEK_AKFURNITURE_D2_CH_SEA
 10
0.100054
 20
0.8761
 30
0
  0
VERTEX
  8
72_ARTEK_AKFURNITURE_D2_CH_SEA
 10
0.0995957
 20
0.872582
 30
0
  0
VERTEX
  8
72_ARTEK_AKFURNITURE_D2_CH_SEA
 10
0.0990014
 20
0.870463
 30
0
  0
VERTEX
  8
72_ARTEK_AKFURNITURE_D2_CH_SEA
 10
0.0982739
 20
0.868774
 30
0
  0
VERTEX
  8
72_ARTEK_AKFURNITURE_D2_CH_SEA
 10
0.0961777
 20
0.867575
 30
0
  0
VERTEX
  8
72_ARTEK_AKFURNITURE_D2_CH_SEA
 10
0.0946058
 20
0.867031
 30
0
  0
VERTEX
  8
72_ARTEK_AKFURNITURE_D2_CH_SEA
 10
0.0917306
 20
0.866226
 30
0
  0
VERTEX
  8
72_ARTEK_AKFURNITURE_D2_CH_SEA
 10
0.0855314
 20
0.865119
 30
0
  0
VERTEX
  8
72_ARTEK_AKFURNITURE_D2_CH_SEA
 10
0.0764969
 20
0.864475
 30
0
  0
VERTEX
  8
72_ARTEK_AKFURNITURE_D2_CH_SEA
 10
0.0735645
 20
0.864357
 30
0
  0
VERTEX
  8
72_ARTEK_AKFURNITURE_D2_CH_SEA
 10
0.0677634
 20
0.864246
 30
0
  0
VERTEX
  8
72_ARTEK_AKFURNITURE_D2_CH_SEA
 10
0.0605189
 20
0.86414
 30
0
  0
VERTEX
  8
72_ARTEK_AKFURNITURE_D2_CH_SEA
 10
0.0554195
 20
0.864085
 30
0
  0
VERTEX
  8
72_ARTEK_AKFURNITURE_D2_CH_SEA
 10
0.0484086
 20
0.86403
 30
0
  0
VERTEX
  8
72_ARTEK_AKFURNITURE_D2_CH_SEA
 10
0.0330838
 20
0.863918
 30
0
  0
VERTEX
  8
72_ARTEK_AKFURNITURE_D2_CH_SEA
 10
0.015597
 20
0.863805
 30
0
  0
VERTEX
  8
72_ARTEK_AKFURNITURE_D2_CH_SEA
 10
-0.0234154
 20
0.863579
 30
0
  0
VERTEX
  8
72_ARTEK_AKFURNITURE_D2_CH_SEA
 10
-0.0624628
 20
0.863365
 30
0
  0
VERTEX
  8
72_ARTEK_AKFURNITURE_D2_CH_SEA
 10
-0.0729438
 20
0.863322
 30
0
  0
VERTEX
  8
72_ARTEK_AKFURNITURE_D2_CH_SEA
 10
-0.0796764
 20
0.863299
 30
0
  0
VERTEX
  8
72_ARTEK_AKFURNITURE_D2_CH_SEA
 10
-0.0875652
 20
0.863274
 30
0
  0
VERTEX
  8
72_ARTEK_AKFURNITURE_D2_CH_SEA
 10
-0.126015
 20
0.863184
 30
0
  0
VERTEX
  8
72_ARTEK_AKFURNITURE_D2_CH_SEA
 10
-0.204465
 20
0.863159
 30
0
  0
VERTEX
  8
72_ARTEK_AKFURNITURE_D2_CH_SEA
 10
-0.243691
 20
0.863195
 30
0
  0
VERTEX
  8
72_ARTEK_AKFURNITURE_D2_CH_SEA
 10
-0.263304
 20
0.86324
 30
0
  0
VERTEX
  8
72_ARTEK_AKFURNITURE_D2_CH_SEA
 10
-0.272666
 20
0.863267
 30
0
  0
VERTEX
  8
72_ARTEK_AKFURNITURE_D2_CH_SEA
 10
-0.28088
 20
0.863292
 30
0
  0
VERTEX
  8
72_ARTEK_AKFURNITURE_D2_CH_SEA
 10
-0.287938
 20
0.863316
 30
0
  0
VERTEX
  8
72_ARTEK_AKFURNITURE_D2_CH_SEA
 10
-0.29384
 20
0.863338
 30
0
  0
VERTEX
  8
72_ARTEK_AKFURNITURE_D2_CH_SEA
 10
-0.303715
 20
0.863382
 30
0
  0
VERTEX
  8
72_ARTEK_AKFURNITURE_D2_CH_SEA
 10
-0.323243
 20
0.863488
 30
0
  0
VERTEX
  8
72_ARTEK_AKFURNITURE_D2_CH_SEA
 10
-0.362255
 20
0.863712
 30
0
  0
VERTEX
  8
72_ARTEK_AKFURNITURE_D2_CH_SEA
 10
-0.381693
 20
0.863825
 30
0
  0
VERTEX
  8
72_ARTEK_AKFURNITURE_D2_CH_SEA
 10
-0.3985
 20
0.863938
 30
0
  0
VERTEX
  8
72_ARTEK_AKFURNITURE_D2_CH_SEA
 10
-0.413791
 20
0.86405
 30
0
  0
VERTEX
  8
72_ARTEK_AKFURNITURE_D2_CH_SEA
 10
-0.420136
 20
0.864105
 30
0
  0
VERTEX
  8
72_ARTEK_AKFURNITURE_D2_CH_SEA
 10
-0.424543
 20
0.864159
 30
0
  0
VERTEX
  8
72_ARTEK_AKFURNITURE_D2_CH_SEA
 10
-0.431712
 20
0.864266
 30
0
  0
VERTEX
  8
72_ARTEK_AKFURNITURE_D2_CH_SEA
 10
-0.436841
 20
0.864378
 30
0
  0
VERTEX
  8
72_ARTEK_AKFURNITURE_D2_CH_SEA
 10
-0.442269
 20
0.864627
 30
0
  0
VERTEX
  8
72_ARTEK_AKFURNITURE_D2_CH_SEA
 10
-0.450315
 20
0.865372
 30
0
  0
VERTEX
  8
72_ARTEK_AKFURNITURE_D2_CH_SEA
 10
-0.45591
 20
0.866639
 30
0
  0
VERTEX
  8
72_ARTEK_AKFURNITURE_D2_CH_SEA
 10
-0.458359
 20
0.867404
 30
0
  0
VERTEX
  8
72_ARTEK_AKFURNITURE_D2_CH_SEA
 10
-0.45952
 20
0.867876
 30
0
  0
VERTEX
  8
72_ARTEK_AKFURNITURE_D2_CH_SEA
 10
-0.461292
 20
0.869231
 30
0
  0
VERTEX
  8
72_ARTEK_AKFURNITURE_D2_CH_SEA
 10
-0.462403
 20
0.87333
 30
0
  0
VERTEX
  8
72_ARTEK_AKFURNITURE_D2_CH_SEA
 10
-0.463056
 20
0.88027
 30
0
  0
VERTEX
  8
72_ARTEK_AKFURNITURE_D2_CH_SEA
 10
-0.463151
 20
0.885189
 30
0
  0
VERTEX
  8
72_ARTEK_AKFURNITURE_D2_CH_SEA
 10
-0.463198
 20
0.888593
 30
0
  0
VERTEX
  8
72_ARTEK_AKFURNITURE_D2_CH_SEA
 10
-0.463261
 20
0.894672
 30
0
  0
VERTEX
  8
72_ARTEK_AKFURNITURE_D2_CH_SEA
 10
-0.463276
 20
0.896699
 30
0
  0
VERTEX
  8
72_ARTEK_AKFURNITURE_D2_CH_SEA
 10
-0.463302
 20
0.900206
 30
0
  0
VERTEX
  8
72_ARTEK_AKFURNITURE_D2_CH_SEA
 10
-0.463323
 20
0.906504
 30
0
  0
VERTEX
  8
72_ARTEK_AKFURNITURE_D2_CH_SEA
 10
-0.463331
 20
0.916502
 30
0
  0
VERTEX
  8
72_ARTEK_AKFURNITURE_D2_CH_SEA
 10
-0.463331
 20
1.29567
 30
0
  0
VERTEX
  8
72_ARTEK_AKFURNITURE_D2_CH_SEA
 10
-0.463331
 20
1.34307
 30
0
  0
VERTEX
  8
72_ARTEK_AKFURNITURE_D2_CH_SEA
 10
-0.46333
 20
1.36653
 30
0
  0
VERTEX
  8
72_ARTEK_AKFURNITURE_D2_CH_SEA
 10
-0.463317
 20
1.3752
 30
0
  0
VERTEX
  8
72_ARTEK_AKFURNITURE_D2_CH_SEA
 10
-0.463292
 20
1.38024
 30
0
  0
VERTEX
  8
72_ARTEK_AKFURNITURE_D2_CH_SEA
 10
-0.46327
 20
1.38321
 30
0
  0
VERTEX
  8
72_ARTEK_AKFURNITURE_D2_CH_SEA
 10
-0.463257
 20
1.38474
 30
0
  0
VERTEX
  8
72_ARTEK_AKFURNITURE_D2_CH_SEA
 10
-0.463224
 20
1.38805
 30
0
  0
VERTEX
  8
72_ARTEK_AKFURNITURE_D2_CH_SEA
 10
-0.463195
 20
1.39064
 30
0
  0
VERTEX
  8
72_ARTEK_AKFURNITURE_D2_CH_SEA
 10
-0.463178
 20
1.39201
 30
0
  0
VERTEX
  8
72_ARTEK_AKFURNITURE_D2_CH_SEA
 10
-0.463091
 20
1.39698
 30
0
  0
VERTEX
  8
72_ARTEK_AKFURNITURE_D2_CH_SEA
 10
-0.463029
 20
1.40016
 30
0
  0
VERTEX
  8
72_ARTEK_AKFURNITURE_D2_CH_SEA
 10
-0.462715
 20
1.40291
 30
0
  0
VERTEX
  8
72_ARTEK_AKFURNITURE_D2_CH_SEA
 10
-0.462257
 20
1.40643
 30
0
  0
VERTEX
  8
72_ARTEK_AKFURNITURE_D2_CH_SEA
 10
-0.461663
 20
1.40855
 30
0
  0
VERTEX
  8
72_ARTEK_AKFURNITURE_D2_CH_SEA
 10
-0.460935
 20
1.41024
 30
0
  0
VERTEX
  8
72_ARTEK_AKFURNITURE_D2_CH_SEA
 10
-0.458839
 20
1.41144
 30
0
  0
VERTEX
  8
72_ARTEK_AKFURNITURE_D2_CH_SEA
 10
-0.457267
 20
1.41198
 30
0
  0
VERTEX
  8
72_ARTEK_AKFURNITURE_D2_CH_SEA
 10
-0.454392
 20
1.41279
 30
0
  0
VERTEX
  8
72_ARTEK_AKFURNITURE_D2_CH_SEA
 10
-0.448193
 20
1.41389
 30
0
  0
VERTEX
  8
72_ARTEK_AKFURNITURE_D2_CH_SEA
 10
-0.439158
 20
1.41454
 30
0
  0
VERTEX
  8
72_ARTEK_AKFURNITURE_D2_CH_SEA
 10
-0.436226
 20
1.41466
 30
0
  0
VERTEX
  8
72_ARTEK_AKFURNITURE_D2_CH_SEA
 10
-0.430425
 20
1.41477
 30
0
  0
VERTEX
  8
72_ARTEK_AKFURNITURE_D2_CH_SEA
 10
-0.42318
 20
1.41487
 30
0
  0
VERTEX
  8
72_ARTEK_AKFURNITURE_D2_CH_SEA
 10
-0.418081
 20
1.41493
 30
0
  0
VERTEX
  8
72_ARTEK_AKFURNITURE_D2_CH_SEA
 10
-0.411071
 20
1.41498
 30
0
  0
VERTEX
  8
72_ARTEK_AKFURNITURE_D2_CH_SEA
 10
-0.395746
 20
1.4151
 30
0
  0
VERTEX
  8
72_ARTEK_AKFURNITURE_D2_CH_SEA
 10
-0.378259
 20
1.41521
 30
0
  0
VERTEX
  8
72_ARTEK_AKFURNITURE_D2_CH_SEA
 10
-0.339247
 20
1.41543
 30
0
  0
VERTEX
  8
72_ARTEK_AKFURNITURE_D2_CH_SEA
 10
-0.3002
 20
1.41565
 30
0
  0
VERTEX
  8
72_ARTEK_AKFURNITURE_D2_CH_SEA
 10
-0.289719
 20
1.41569
 30
0
  0
VERTEX
  8
72_ARTEK_AKFURNITURE_D2_CH_SEA
 10
-0.282986
 20
1.41571
 30
0
  0
VERTEX
  8
72_ARTEK_AKFURNITURE_D2_CH_SEA
 10
-0.275098
 20
1.41574
 30
0
  0
VERTEX
  8
72_ARTEK_AKFURNITURE_D2_CH_SEA
 10
-0.236648
 20
1.41583
 30
0
  0
VERTEX
  8
72_ARTEK_AKFURNITURE_D2_CH_SEA
 10
-0.158198
 20
1.41585
 30
0
  0
VERTEX
  8
72_ARTEK_AKFURNITURE_D2_CH_SEA
 10
-0.118972
 20
1.41582
 30
0
  0
VERTEX
  8
72_ARTEK_AKFURNITURE_D2_CH_SEA
 10
-0.0993595
 20
1.41577
 30
0
  0
VERTEX
  8
72_ARTEK_AKFURNITURE_D2_CH_SEA
 10
-0.0899975
 20
1.41575
 30
0
  0
VERTEX
  8
72_ARTEK_AKFURNITURE_D2_CH_SEA
 10
-0.0817829
 20
1.41572
 30
0
  0
VERTEX
  8
72_ARTEK_AKFURNITURE_D2_CH_SEA
 10
-0.0747244
 20
1.4157
 30
0
  0
VERTEX
  8
72_ARTEK_AKFURNITURE_D2_CH_SEA
 10
-0.0688221
 20
1.41567
 30
0
  0
VERTEX
  8
72_ARTEK_AKFURNITURE_D2_CH_SEA
 10
-0.0589472
 20
1.41563
 30
0
  0
VERTEX
  8
72_ARTEK_AKFURNITURE_D2_CH_SEA
 10
-0.0394195
 20
1.41553
 30
0
  0
VERTEX
  8
72_ARTEK_AKFURNITURE_D2_CH_SEA
 10
-0.000407082
 20
1.4153
 30
0
  0
VERTEX
  8
72_ARTEK_AKFURNITURE_D2_CH_SEA
 10
0.0190305
 20
1.41519
 30
0
  0
VERTEX
  8
72_ARTEK_AKFURNITURE_D2_CH_SEA
 10
0.0358381
 20
1.41508
 30
0
  0
VERTEX
  8
72_ARTEK_AKFURNITURE_D2_CH_SEA
 10
0.051129
 20
1.41496
 30
0
  0
VERTEX
  8
72_ARTEK_AKFURNITURE_D2_CH_SEA
 10
0.0574742
 20
1.41491
 30
0
  0
VERTEX
  8
72_ARTEK_AKFURNITURE_D2_CH_SEA
 10
0.0618818
 20
1.41485
 30
0
  0
VERTEX
  8
72_ARTEK_AKFURNITURE_D2_CH_SEA
 10
0.0690504
 20
1.41475
 30
0
  0
VERTEX
  8
72_ARTEK_AKFURNITURE_D2_CH_SEA
 10
0.0741797
 20
1.41463
 30
0
  0
VERTEX
  8
72_ARTEK_AKFURNITURE_D2_CH_SEA
 10
0.0796076
 20
1.41439
 30
0
  0
VERTEX
  8
72_ARTEK_AKFURNITURE_D2_CH_SEA
 10
0.087654
 20
1.41364
 30
0
  0
VERTEX
  8
72_ARTEK_AKFURNITURE_D2_CH_SEA
 10
0.0932488
 20
1.41237
 30
0
  0
VERTEX
  8
72_ARTEK_AKFURNITURE_D2_CH_SEA
 10
0.0956979
 20
1.41161
 30
0
  0
VERTEX
  8
72_ARTEK_AKFURNITURE_D2_CH_SEA
 10
0.0968586
 20
1.41114
 30
0
  0
VERTEX
  8
72_ARTEK_AKFURNITURE_D2_CH_SEA
 10
0.0986305
 20
1.40978
 30
0
  0
VERTEX
  8
72_ARTEK_AKFURNITURE_D2_CH_SEA
 10
0.0997417
 20
1.40568
 30
0
  0
VERTEX
  8
72_ARTEK_AKFURNITURE_D2_CH_SEA
 10
0.100395
 20
1.39874
 30
0
  0
VERTEX
  8
72_ARTEK_AKFURNITURE_D2_CH_SEA
 10
0.10049
 20
1.39382
 30
0
  0
VERTEX
  8
72_ARTEK_AKFURNITURE_D2_CH_SEA
 10
0.100537
 20
1.39042
 30
0
  0
VERTEX
  8
72_ARTEK_AKFURNITURE_D2_CH_SEA
 10
0.100599
 20
1.38434
 30
0
  0
VERTEX
  8
72_ARTEK_AKFURNITURE_D2_CH_SEA
 10
0.100615
 20
1.38231
 30
0
  0
VERTEX
  8
72_ARTEK_AKFURNITURE_D2_CH_SEA
 10
0.100641
 20
1.37881
 30
0
  0
VERTEX
  8
72_ARTEK_AKFURNITURE_D2_CH_SEA
 10
0.100662
 20
1.37251
 30
0
  0
VERTEX
  8
72_ARTEK_AKFURNITURE_D2_CH_SEA
 10
0.100669
 20
1.36251
 30
0
  0
SEQEND
  0
POLYLINE
  8
72_ARTEK_AKFURNITURE_D2SNAP
 66
     1
 70
     0
 10
0.0
 20
0.0
 30
0.0
  0
VERTEX
  8
72_ARTEK_AKFURNITURE_D2SNAP
 10
-0.168831
 20
1.13951
 30
0
  0
VERTEX
  8
72_ARTEK_AKFURNITURE_D2SNAP
 10
-0.169071
 20
1.14195
 30
0
  0
VERTEX
  8
72_ARTEK_AKFURNITURE_D2SNAP
 10
-0.169782
 20
1.14429
 30
0
  0
VERTEX
  8
72_ARTEK_AKFURNITURE_D2SNAP
 10
-0.170937
 20
1.14645
 30
0
  0
VERTEX
  8
72_ARTEK_AKFURNITURE_D2SNAP
 10
-0.172492
 20
1.14835
 30
0
  0
VERTEX
  8
72_ARTEK_AKFURNITURE_D2SNAP
 10
-0.174386
 20
1.1499
 30
0
  0
VERTEX
  8
72_ARTEK_AKFURNITURE_D2SNAP
 10
-0.176547
 20
1.15105
 30
0
  0
VERTEX
  8
72_ARTEK_AKFURNITURE_D2SNAP
 10
-0.178892
 20
1.15177
 30
0
  0
VERTEX
  8
72_ARTEK_AKFURNITURE_D2SNAP
 10
-0.181331
 20
1.15201
 30
0
  0
VERTEX
  8
72_ARTEK_AKFURNITURE_D2SNAP
 10
-0.183769
 20
1.15177
 30
0
  0
VERTEX
  8
72_ARTEK_AKFURNITURE_D2SNAP
 10
-0.186114
 20
1.15105
 30
0
  0
VERTEX
  8
72_ARTEK_AKFURNITURE_D2SNAP
 10
-0.188275
 20
1.1499
 30
0
  0
VERTEX
  8
72_ARTEK_AKFURNITURE_D2SNAP
 10
-0.190169
 20
1.14835
 30
0
  0
VERTEX
  8
72_ARTEK_AKFURNITURE_D2SNAP
 10
-0.191724
 20
1.14645
 30
0
  0
VERTEX
  8
72_ARTEK_AKFURNITURE_D2SNAP
 10
-0.192879
 20
1.14429
 30
0
  0
VERTEX
  8
72_ARTEK_AKFURNITURE_D2SNAP
 10
-0.19359
 20
1.14195
 30
0
  0
VERTEX
  8
72_ARTEK_AKFURNITURE_D2SNAP
 10
-0.193831
 20
1.13951
 30
0
  0
VERTEX
  8
72_ARTEK_AKFURNITURE_D2SNAP
 10
-0.19359
 20
1.13707
 30
0
  0
VERTEX
  8
72_ARTEK_AKFURNITURE_D2SNAP
 10
-0.192879
 20
1.13472
 30
0
  0
VERTEX
  8
72_ARTEK_AKFURNITURE_D2SNAP
 10
-0.191724
 20
1.13256
 30
0
  0
VERTEX
  8
72_ARTEK_AKFURNITURE_D2SNAP
 10
-0.190169
 20
1.13067
 30
0
  0
VERTEX
  8
72_ARTEK_AKFURNITURE_D2SNAP
 10
-0.188275
 20
1.12911
 30
0
  0
VERTEX
  8
72_ARTEK_AKFURNITURE_D2SNAP
 10
-0.186114
 20
1.12796
 30
0
  0
VERTEX
  8
72_ARTEK_AKFURNITURE_D2SNAP
 10
-0.183769
 20
1.12725
 30
0
  0
VERTEX
  8
72_ARTEK_AKFURNITURE_D2SNAP
 10
-0.181331
 20
1.12701
 30
0
  0
VERTEX
  8
72_ARTEK_AKFURNITURE_D2SNAP
 10
-0.178892
 20
1.12725
 30
0
  0
VERTEX
  8
72_ARTEK_AKFURNITURE_D2SNAP
 10
-0.176547
 20
1.12796
 30
0
  0
VERTEX
  8
72_ARTEK_AKFURNITURE_D2SNAP
 10
-0.174386
 20
1.12911
 30
0
  0
VERTEX
  8
72_ARTEK_AKFURNITURE_D2SNAP
 10
-0.172492
 20
1.13067
 30
0
  0
VERTEX
  8
72_ARTEK_AKFURNITURE_D2SNAP
 10
-0.170937
 20
1.13256
 30
0
  0
VERTEX
  8
72_ARTEK_AKFURNITURE_D2SNAP
 10
-0.169782
 20
1.13472
 30
0
  0
VERTEX
  8
72_ARTEK_AKFURNITURE_D2SNAP
 10
-0.169071
 20
1.13707
 30
0
  0
VERTEX
  8
72_ARTEK_AKFURNITURE_D2SNAP
 10
-0.168831
 20
1.13951
 30
0
  0
SEQEND
  0
POLYLINE
  8
72_ARTEK_AKFURNITURE_D2SNAP
 66
     1
 70
     0
 10
0.0
 20
0.0
 30
0.0
  0
VERTEX
  8
72_ARTEK_AKFURNITURE_D2SNAP
 10
-0.199008
 20
1.12183
 30
0
  0
VERTEX
  8
72_ARTEK_AKFURNITURE_D2SNAP
 10
-0.163653
 20
1.15718
 30
0
  0
SEQEND
  0
POLYLINE
  8
72_ARTEK_AKFURNITURE_D2SNAP
 66
     1
 70
     0
 10
0.0
 20
0.0
 30
0.0
  0
VERTEX
  8
72_ARTEK_AKFURNITURE_D2SNAP
 10
-0.199008
 20
1.15718
 30
0
  0
VERTEX
  8
72_ARTEK_AKFURNITURE_D2SNAP
 10
-0.163653
 20
1.12183
 30
0
  0
SEQEND
  0
ENDBLK
  8
0
  0
BLOCK
  8
0
  2
OB2D__000001
 70
    64
 10
0.0
 20
0.0
 30
0.0
  3
OB2D__000001
  0
ENDBLK
  8
0
  0
ENDSEC
  0
SECTION
  2
ENTITIES
  0
INSERT
  8
72OFGO2D01_GRAFIK
  2
OB2D__000000
 10
0.0
 20
0.0
 30
0.0
  0
INSERT
  8
72OFGO2D01_GRAFIK
  2
OB2D__000001
 10
0.0
 20
0.0
 30
0.0
  0
ENDSEC
  0
EOF
