  0
SECTION
  2
HEADER
  9
$ACADVER
  1
AC1009
  9
$INSBASE
 10
0.0
 20
0.0
 30
0.0
  9
$EXTMIN
 10
-5.03
 20
-5.03
 30
-1.03
  9
$EXTMAX
 10
5.03
 20
5
 30
5.03
  0
ENDSEC
  0
SECTION
  2
TABLES
  0
TABLE
  2
LTYPE
 70
     2
  0
LTYPE
  2
CONTINUOUS
 70
    64
  3
________
 72
    65
 73
     0
 40
0.0
  0
LTYPE
  2
DASHED
 70
     0
  3
__ __ __
 72
    65
 73
     2
 40
0.75
 49
0.5
 49
-0.25
  0
LTYPE
  2
DOT
 70
     0
  3
. . . .
 72
    65
 73
     2
 40
0.25
 49
0.0
 49
-0.25
  0
LTYPE
  2
DASHDOT
 70
     0
  3
_ . _ .
 72
    65
 73
     4
 40
1.0
 49
0.5
 49
-0.25
 49
-0.0
 49
-0.25
  0
LTYPE
  2
DASHDOUBLEDOT
 70
     0
  3
__..__..
 72
    65
 73
     6
 40
1.25
 49
0.5
 49
-0.25
 49
-0.0
 49
-0.25
 49
-0.0
 49
-0.25
  0
LTYPE
  2
DASHTRIPLEDOT
 70
     0
  3
__...__...__
 72
    65
 73
     8
 40
1.5
 49
0.5
 49
-0.25
 49
-0.0
 49
-0.25
 49
-0.0
 49
-0.25
 49
-0.0
 49
-0.25
  0
ENDTAB
  0
TABLE
  2
LAYER
 70
    13
  0
LAYER
  2
0
 70
    64
 62
     7
  6
CONTINUOUS
  0
LAYER
  2
CEILING
 70
    64
 62
     7
  6
CONTINUOUS
  0
LAYER
  2
FLOORBLOCK
 70
    64
 62
     7
  6
CONTINUOUS
  0
LAYER
  2
FLOORHATCHING
 70
    64
 62
     7
  6
CONTINUOUS
  0
LAYER
  2
SNAP
 70
    64
 62
     7
  6
CONTINUOUS
  0
LAYER
  2
ATTACHPOINT
 70
    64
 62
     7
  6
CONTINUOUS
  0
LAYER
  2
72_ARTEK_AKFURNITURE_D2_SH_ATT
 70
    64
 62
8
  6
CONTINUOUS
  0
LAYER
  2
72_ARTEK_AKFURNITURE_D2SNAP
 70
    64
 62
1
  6
CONTINUOUS
  0
LAYER
  2
72_ARTEK_AKFURNITURE_D2_SH_FRA
 70
    64
 62
18
  6
CONTINUOUS
  0
LAYER
  2
72_ARTEK_AKFURNITURE_D2_SH_SHE
 70
    64
 62
18
  6
CONTINUOUS
  0
LAYER
  2
72_ARTEK_AKFURNITURE_D2_TB_ATT
 70
    64
 62
8
  6
CONTINUOUS
  0
LAYER
  2
72_ARTEK_AKFURNITURE_D2_TB_TAB
 70
    64
 62
18
  6
CONTINUOUS
  0
LAYER
  2
72OFGO2D01_GRAFIK
 70
    64
 62
     1
  6
CONTINUOUS
  0
ENDTAB
  0
TABLE
  2
STYLE
 70
     1
  0
STYLE
  2
STANDARD
 70
     0
 40
0.0
 41
1.0
 50
0.0
 71
     0
 42
0.2
  3
txt
  4

  0
ENDTAB
  0
TABLE
  2
APPID
 70
    64
  0
APPID
  2
ACAD
 70
    64
  0
APPID
  2
OFML_10
 70
    64
  0
ENDTAB
  0
ENDSEC
  0
SECTION
  2
BLOCKS
  0
BLOCK
  8
0
  2
OB2D__000000
 70
    64
 10
0.0
 20
0.0
 30
0.0
  3
OB2D__000000
  0
POLYLINE
  8
72_ARTEK_AKFURNITURE_D2_SH_ATT
 66
     1
 70
     0
 10
0.0
 20
0.0
 30
0.0
  0
VERTEX
  8
72_ARTEK_AKFURNITURE_D2_SH_ATT
 10
0.1125
 20
-0.0527321
 30
0
  0
VERTEX
  8
72_ARTEK_AKFURNITURE_D2_SH_ATT
 10
0.112184
 20
-0.0528794
 30
0
  0
VERTEX
  8
72_ARTEK_AKFURNITURE_D2_SH_ATT
 10
0.111847
 20
-0.0529696
 30
0
  0
VERTEX
  8
72_ARTEK_AKFURNITURE_D2_SH_ATT
 10
0.1115
 20
-0.053
 30
0
  0
VERTEX
  8
72_ARTEK_AKFURNITURE_D2_SH_ATT
 10
0.0885
 20
-0.053
 30
0
  0
VERTEX
  8
72_ARTEK_AKFURNITURE_D2_SH_ATT
 10
0.0885
 20
-0.053
 30
0
  0
VERTEX
  8
72_ARTEK_AKFURNITURE_D2_SH_ATT
 10
0.0881527
 20
-0.0529696
 30
0
  0
VERTEX
  8
72_ARTEK_AKFURNITURE_D2_SH_ATT
 10
0.087816
 20
-0.0528794
 30
0
  0
VERTEX
  8
72_ARTEK_AKFURNITURE_D2_SH_ATT
 10
0.0875
 20
-0.0527321
 30
0
  0
VERTEX
  8
72_ARTEK_AKFURNITURE_D2_SH_ATT
 10
0.0875
 20
-0.5105
 30
0
  0
VERTEX
  8
72_ARTEK_AKFURNITURE_D2_SH_ATT
 10
0.088
 20
-0.511
 30
0
  0
VERTEX
  8
72_ARTEK_AKFURNITURE_D2_SH_ATT
 10
0.112
 20
-0.511
 30
0
  0
VERTEX
  8
72_ARTEK_AKFURNITURE_D2_SH_ATT
 10
0.1125
 20
-0.5105
 30
0
  0
VERTEX
  8
72_ARTEK_AKFURNITURE_D2_SH_ATT
 10
0.1125
 20
-0.0527321
 30
0
  0
SEQEND
  0
POLYLINE
  8
72_ARTEK_AKFURNITURE_D2_SH_ATT
 66
     1
 70
     0
 10
0.0
 20
0.0
 30
0.0
  0
VERTEX
  8
72_ARTEK_AKFURNITURE_D2_SH_ATT
 10
0.8875
 20
-0.0527321
 30
0
  0
VERTEX
  8
72_ARTEK_AKFURNITURE_D2_SH_ATT
 10
0.887816
 20
-0.0528794
 30
0
  0
VERTEX
  8
72_ARTEK_AKFURNITURE_D2_SH_ATT
 10
0.888153
 20
-0.0529696
 30
0
  0
VERTEX
  8
72_ARTEK_AKFURNITURE_D2_SH_ATT
 10
0.8885
 20
-0.053
 30
0
  0
VERTEX
  8
72_ARTEK_AKFURNITURE_D2_SH_ATT
 10
0.9115
 20
-0.053
 30
0
  0
VERTEX
  8
72_ARTEK_AKFURNITURE_D2_SH_ATT
 10
0.9115
 20
-0.053
 30
0
  0
VERTEX
  8
72_ARTEK_AKFURNITURE_D2_SH_ATT
 10
0.911847
 20
-0.0529696
 30
0
  0
VERTEX
  8
72_ARTEK_AKFURNITURE_D2_SH_ATT
 10
0.912184
 20
-0.0528794
 30
0
  0
VERTEX
  8
72_ARTEK_AKFURNITURE_D2_SH_ATT
 10
0.9125
 20
-0.0527321
 30
0
  0
VERTEX
  8
72_ARTEK_AKFURNITURE_D2_SH_ATT
 10
0.9125
 20
-0.5105
 30
0
  0
VERTEX
  8
72_ARTEK_AKFURNITURE_D2_SH_ATT
 10
0.912
 20
-0.511
 30
0
  0
VERTEX
  8
72_ARTEK_AKFURNITURE_D2_SH_ATT
 10
0.888
 20
-0.511
 30
0
  0
VERTEX
  8
72_ARTEK_AKFURNITURE_D2_SH_ATT
 10
0.8875
 20
-0.5105
 30
0
  0
VERTEX
  8
72_ARTEK_AKFURNITURE_D2_SH_ATT
 10
0.8875
 20
-0.0527321
 30
0
  0
SEQEND
  0
POLYLINE
  8
72_ARTEK_AKFURNITURE_D2SNAP
 66
     1
 70
     0
 10
0.0
 20
0.0
 30
0.0
  0
VERTEX
  8
72_ARTEK_AKFURNITURE_D2SNAP
 10
0.5125
 20
-0.275
 30
0
  0
VERTEX
  8
72_ARTEK_AKFURNITURE_D2SNAP
 10
0.51226
 20
-0.272561
 30
0
  0
VERTEX
  8
72_ARTEK_AKFURNITURE_D2SNAP
 10
0.511548
 20
-0.270216
 30
0
  0
VERTEX
  8
72_ARTEK_AKFURNITURE_D2SNAP
 10
0.510393
 20
-0.268055
 30
0
  0
VERTEX
  8
72_ARTEK_AKFURNITURE_D2SNAP
 10
0.508839
 20
-0.266161
 30
0
  0
VERTEX
  8
72_ARTEK_AKFURNITURE_D2SNAP
 10
0.506945
 20
-0.264607
 30
0
  0
VERTEX
  8
72_ARTEK_AKFURNITURE_D2SNAP
 10
0.504784
 20
-0.263452
 30
0
  0
VERTEX
  8
72_ARTEK_AKFURNITURE_D2SNAP
 10
0.502439
 20
-0.26274
 30
0
  0
VERTEX
  8
72_ARTEK_AKFURNITURE_D2SNAP
 10
0.5
 20
-0.2625
 30
0
  0
VERTEX
  8
72_ARTEK_AKFURNITURE_D2SNAP
 10
0.497561
 20
-0.26274
 30
0
  0
VERTEX
  8
72_ARTEK_AKFURNITURE_D2SNAP
 10
0.495216
 20
-0.263452
 30
0
  0
VERTEX
  8
72_ARTEK_AKFURNITURE_D2SNAP
 10
0.493055
 20
-0.264607
 30
0
  0
VERTEX
  8
72_ARTEK_AKFURNITURE_D2SNAP
 10
0.491161
 20
-0.266161
 30
0
  0
VERTEX
  8
72_ARTEK_AKFURNITURE_D2SNAP
 10
0.489607
 20
-0.268055
 30
0
  0
VERTEX
  8
72_ARTEK_AKFURNITURE_D2SNAP
 10
0.488452
 20
-0.270216
 30
0
  0
VERTEX
  8
72_ARTEK_AKFURNITURE_D2SNAP
 10
0.48774
 20
-0.272561
 30
0
  0
VERTEX
  8
72_ARTEK_AKFURNITURE_D2SNAP
 10
0.4875
 20
-0.275
 30
0
  0
VERTEX
  8
72_ARTEK_AKFURNITURE_D2SNAP
 10
0.48774
 20
-0.277439
 30
0
  0
VERTEX
  8
72_ARTEK_AKFURNITURE_D2SNAP
 10
0.488452
 20
-0.279784
 30
0
  0
VERTEX
  8
72_ARTEK_AKFURNITURE_D2SNAP
 10
0.489607
 20
-0.281945
 30
0
  0
VERTEX
  8
72_ARTEK_AKFURNITURE_D2SNAP
 10
0.491161
 20
-0.283839
 30
0
  0
VERTEX
  8
72_ARTEK_AKFURNITURE_D2SNAP
 10
0.493055
 20
-0.285393
 30
0
  0
VERTEX
  8
72_ARTEK_AKFURNITURE_D2SNAP
 10
0.495216
 20
-0.286548
 30
0
  0
VERTEX
  8
72_ARTEK_AKFURNITURE_D2SNAP
 10
0.497561
 20
-0.28726
 30
0
  0
VERTEX
  8
72_ARTEK_AKFURNITURE_D2SNAP
 10
0.5
 20
-0.2875
 30
0
  0
VERTEX
  8
72_ARTEK_AKFURNITURE_D2SNAP
 10
0.502439
 20
-0.28726
 30
0
  0
VERTEX
  8
72_ARTEK_AKFURNITURE_D2SNAP
 10
0.504784
 20
-0.286548
 30
0
  0
VERTEX
  8
72_ARTEK_AKFURNITURE_D2SNAP
 10
0.506945
 20
-0.285393
 30
0
  0
VERTEX
  8
72_ARTEK_AKFURNITURE_D2SNAP
 10
0.508839
 20
-0.283839
 30
0
  0
VERTEX
  8
72_ARTEK_AKFURNITURE_D2SNAP
 10
0.510393
 20
-0.281945
 30
0
  0
VERTEX
  8
72_ARTEK_AKFURNITURE_D2SNAP
 10
0.511548
 20
-0.279784
 30
0
  0
VERTEX
  8
72_ARTEK_AKFURNITURE_D2SNAP
 10
0.51226
 20
-0.277439
 30
0
  0
VERTEX
  8
72_ARTEK_AKFURNITURE_D2SNAP
 10
0.5125
 20
-0.275
 30
0
  0
SEQEND
  0
POLYLINE
  8
72_ARTEK_AKFURNITURE_D2SNAP
 66
     1
 70
     0
 10
0.0
 20
0.0
 30
0.0
  0
VERTEX
  8
72_ARTEK_AKFURNITURE_D2SNAP
 10
0.482322
 20
-0.292678
 30
0
  0
VERTEX
  8
72_ARTEK_AKFURNITURE_D2SNAP
 10
0.517678
 20
-0.257322
 30
0
  0
SEQEND
  0
POLYLINE
  8
72_ARTEK_AKFURNITURE_D2SNAP
 66
     1
 70
     0
 10
0.0
 20
0.0
 30
0.0
  0
VERTEX
  8
72_ARTEK_AKFURNITURE_D2SNAP
 10
0.482322
 20
-0.257322
 30
0
  0
VERTEX
  8
72_ARTEK_AKFURNITURE_D2SNAP
 10
0.517678
 20
-0.292678
 30
0
  0
SEQEND
  0
POLYLINE
  8
72_ARTEK_AKFURNITURE_D2_SH_FRA
 66
     1
 70
     0
 10
0.0
 20
0.0
 30
0.0
  0
VERTEX
  8
72_ARTEK_AKFURNITURE_D2_SH_FRA
 10
0.1135
 20
-0
 30
0
  0
VERTEX
  8
72_ARTEK_AKFURNITURE_D2_SH_FRA
 10
0.0865
 20
-0
 30
0
  0
VERTEX
  8
72_ARTEK_AKFURNITURE_D2_SH_FRA
 10
0.0865
 20
-0.051
 30
0
  0
VERTEX
  8
72_ARTEK_AKFURNITURE_D2_SH_FRA
 10
0.0865
 20
-0.051
 30
0
  0
VERTEX
  8
72_ARTEK_AKFURNITURE_D2_SH_FRA
 10
0.0865304
 20
-0.0513473
 30
0
  0
VERTEX
  8
72_ARTEK_AKFURNITURE_D2_SH_FRA
 10
0.0866206
 20
-0.051684
 30
0
  0
VERTEX
  8
72_ARTEK_AKFURNITURE_D2_SH_FRA
 10
0.0867679
 20
-0.052
 30
0
  0
VERTEX
  8
72_ARTEK_AKFURNITURE_D2_SH_FRA
 10
0.0869679
 20
-0.0522856
 30
0
  0
VERTEX
  8
72_ARTEK_AKFURNITURE_D2_SH_FRA
 10
0.0872144
 20
-0.0525321
 30
0
  0
VERTEX
  8
72_ARTEK_AKFURNITURE_D2_SH_FRA
 10
0.0875
 20
-0.0527321
 30
0
  0
VERTEX
  8
72_ARTEK_AKFURNITURE_D2_SH_FRA
 10
0.087816
 20
-0.0528794
 30
0
  0
VERTEX
  8
72_ARTEK_AKFURNITURE_D2_SH_FRA
 10
0.0881527
 20
-0.0529696
 30
0
  0
VERTEX
  8
72_ARTEK_AKFURNITURE_D2_SH_FRA
 10
0.0885
 20
-0.053
 30
0
  0
VERTEX
  8
72_ARTEK_AKFURNITURE_D2_SH_FRA
 10
0.1115
 20
-0.053
 30
0
  0
VERTEX
  8
72_ARTEK_AKFURNITURE_D2_SH_FRA
 10
0.1115
 20
-0.053
 30
0
  0
VERTEX
  8
72_ARTEK_AKFURNITURE_D2_SH_FRA
 10
0.111847
 20
-0.0529696
 30
0
  0
VERTEX
  8
72_ARTEK_AKFURNITURE_D2_SH_FRA
 10
0.112184
 20
-0.0528794
 30
0
  0
VERTEX
  8
72_ARTEK_AKFURNITURE_D2_SH_FRA
 10
0.1125
 20
-0.0527321
 30
0
  0
VERTEX
  8
72_ARTEK_AKFURNITURE_D2_SH_FRA
 10
0.112786
 20
-0.0525321
 30
0
  0
VERTEX
  8
72_ARTEK_AKFURNITURE_D2_SH_FRA
 10
0.113032
 20
-0.0522856
 30
0
  0
VERTEX
  8
72_ARTEK_AKFURNITURE_D2_SH_FRA
 10
0.113232
 20
-0.052
 30
0
  0
VERTEX
  8
72_ARTEK_AKFURNITURE_D2_SH_FRA
 10
0.113379
 20
-0.051684
 30
0
  0
VERTEX
  8
72_ARTEK_AKFURNITURE_D2_SH_FRA
 10
0.11347
 20
-0.0513473
 30
0
  0
VERTEX
  8
72_ARTEK_AKFURNITURE_D2_SH_FRA
 10
0.1135
 20
-0.051
 30
0
  0
VERTEX
  8
72_ARTEK_AKFURNITURE_D2_SH_FRA
 10
0.1135
 20
-0
 30
0
  0
SEQEND
  0
POLYLINE
  8
72_ARTEK_AKFURNITURE_D2_SH_FRA
 66
     1
 70
     0
 10
0.0
 20
0.0
 30
0.0
  0
VERTEX
  8
72_ARTEK_AKFURNITURE_D2_SH_FRA
 10
0.8865
 20
-0
 30
0
  0
VERTEX
  8
72_ARTEK_AKFURNITURE_D2_SH_FRA
 10
0.9135
 20
-0
 30
0
  0
VERTEX
  8
72_ARTEK_AKFURNITURE_D2_SH_FRA
 10
0.9135
 20
-0.051
 30
0
  0
VERTEX
  8
72_ARTEK_AKFURNITURE_D2_SH_FRA
 10
0.9135
 20
-0.051
 30
0
  0
VERTEX
  8
72_ARTEK_AKFURNITURE_D2_SH_FRA
 10
0.91347
 20
-0.0513473
 30
0
  0
VERTEX
  8
72_ARTEK_AKFURNITURE_D2_SH_FRA
 10
0.913379
 20
-0.051684
 30
0
  0
VERTEX
  8
72_ARTEK_AKFURNITURE_D2_SH_FRA
 10
0.913232
 20
-0.052
 30
0
  0
VERTEX
  8
72_ARTEK_AKFURNITURE_D2_SH_FRA
 10
0.913032
 20
-0.0522856
 30
0
  0
VERTEX
  8
72_ARTEK_AKFURNITURE_D2_SH_FRA
 10
0.912786
 20
-0.0525321
 30
0
  0
VERTEX
  8
72_ARTEK_AKFURNITURE_D2_SH_FRA
 10
0.9125
 20
-0.0527321
 30
0
  0
VERTEX
  8
72_ARTEK_AKFURNITURE_D2_SH_FRA
 10
0.912184
 20
-0.0528794
 30
0
  0
VERTEX
  8
72_ARTEK_AKFURNITURE_D2_SH_FRA
 10
0.911847
 20
-0.0529696
 30
0
  0
VERTEX
  8
72_ARTEK_AKFURNITURE_D2_SH_FRA
 10
0.9115
 20
-0.053
 30
0
  0
VERTEX
  8
72_ARTEK_AKFURNITURE_D2_SH_FRA
 10
0.8885
 20
-0.053
 30
0
  0
VERTEX
  8
72_ARTEK_AKFURNITURE_D2_SH_FRA
 10
0.8885
 20
-0.053
 30
0
  0
VERTEX
  8
72_ARTEK_AKFURNITURE_D2_SH_FRA
 10
0.888153
 20
-0.0529696
 30
0
  0
VERTEX
  8
72_ARTEK_AKFURNITURE_D2_SH_FRA
 10
0.887816
 20
-0.0528794
 30
0
  0
VERTEX
  8
72_ARTEK_AKFURNITURE_D2_SH_FRA
 10
0.8875
 20
-0.0527321
 30
0
  0
VERTEX
  8
72_ARTEK_AKFURNITURE_D2_SH_FRA
 10
0.887214
 20
-0.0525321
 30
0
  0
VERTEX
  8
72_ARTEK_AKFURNITURE_D2_SH_FRA
 10
0.886968
 20
-0.0522856
 30
0
  0
VERTEX
  8
72_ARTEK_AKFURNITURE_D2_SH_FRA
 10
0.886768
 20
-0.052
 30
0
  0
VERTEX
  8
72_ARTEK_AKFURNITURE_D2_SH_FRA
 10
0.886621
 20
-0.051684
 30
0
  0
VERTEX
  8
72_ARTEK_AKFURNITURE_D2_SH_FRA
 10
0.88653
 20
-0.0513473
 30
0
  0
VERTEX
  8
72_ARTEK_AKFURNITURE_D2_SH_FRA
 10
0.8865
 20
-0.051
 30
0
  0
VERTEX
  8
72_ARTEK_AKFURNITURE_D2_SH_FRA
 10
0.8865
 20
-0
 30
0
  0
SEQEND
  0
POLYLINE
  8
72_ARTEK_AKFURNITURE_D2SNAP
 66
     1
 70
     0
 10
0.0
 20
0.0
 30
0.0
  0
VERTEX
  8
72_ARTEK_AKFURNITURE_D2SNAP
 10
0.5125
 20
-0.275
 30
0
  0
VERTEX
  8
72_ARTEK_AKFURNITURE_D2SNAP
 10
0.51226
 20
-0.272561
 30
0
  0
VERTEX
  8
72_ARTEK_AKFURNITURE_D2SNAP
 10
0.511548
 20
-0.270216
 30
0
  0
VERTEX
  8
72_ARTEK_AKFURNITURE_D2SNAP
 10
0.510393
 20
-0.268055
 30
0
  0
VERTEX
  8
72_ARTEK_AKFURNITURE_D2SNAP
 10
0.508839
 20
-0.266161
 30
0
  0
VERTEX
  8
72_ARTEK_AKFURNITURE_D2SNAP
 10
0.506945
 20
-0.264607
 30
0
  0
VERTEX
  8
72_ARTEK_AKFURNITURE_D2SNAP
 10
0.504784
 20
-0.263452
 30
0
  0
VERTEX
  8
72_ARTEK_AKFURNITURE_D2SNAP
 10
0.502439
 20
-0.26274
 30
0
  0
VERTEX
  8
72_ARTEK_AKFURNITURE_D2SNAP
 10
0.5
 20
-0.2625
 30
0
  0
VERTEX
  8
72_ARTEK_AKFURNITURE_D2SNAP
 10
0.497561
 20
-0.26274
 30
0
  0
VERTEX
  8
72_ARTEK_AKFURNITURE_D2SNAP
 10
0.495216
 20
-0.263452
 30
0
  0
VERTEX
  8
72_ARTEK_AKFURNITURE_D2SNAP
 10
0.493055
 20
-0.264607
 30
0
  0
VERTEX
  8
72_ARTEK_AKFURNITURE_D2SNAP
 10
0.491161
 20
-0.266161
 30
0
  0
VERTEX
  8
72_ARTEK_AKFURNITURE_D2SNAP
 10
0.489607
 20
-0.268055
 30
0
  0
VERTEX
  8
72_ARTEK_AKFURNITURE_D2SNAP
 10
0.488452
 20
-0.270216
 30
0
  0
VERTEX
  8
72_ARTEK_AKFURNITURE_D2SNAP
 10
0.48774
 20
-0.272561
 30
0
  0
VERTEX
  8
72_ARTEK_AKFURNITURE_D2SNAP
 10
0.4875
 20
-0.275
 30
0
  0
VERTEX
  8
72_ARTEK_AKFURNITURE_D2SNAP
 10
0.48774
 20
-0.277439
 30
0
  0
VERTEX
  8
72_ARTEK_AKFURNITURE_D2SNAP
 10
0.488452
 20
-0.279784
 30
0
  0
VERTEX
  8
72_ARTEK_AKFURNITURE_D2SNAP
 10
0.489607
 20
-0.281945
 30
0
  0
VERTEX
  8
72_ARTEK_AKFURNITURE_D2SNAP
 10
0.491161
 20
-0.283839
 30
0
  0
VERTEX
  8
72_ARTEK_AKFURNITURE_D2SNAP
 10
0.493055
 20
-0.285393
 30
0
  0
VERTEX
  8
72_ARTEK_AKFURNITURE_D2SNAP
 10
0.495216
 20
-0.286548
 30
0
  0
VERTEX
  8
72_ARTEK_AKFURNITURE_D2SNAP
 10
0.497561
 20
-0.28726
 30
0
  0
VERTEX
  8
72_ARTEK_AKFURNITURE_D2SNAP
 10
0.5
 20
-0.2875
 30
0
  0
VERTEX
  8
72_ARTEK_AKFURNITURE_D2SNAP
 10
0.502439
 20
-0.28726
 30
0
  0
VERTEX
  8
72_ARTEK_AKFURNITURE_D2SNAP
 10
0.504784
 20
-0.286548
 30
0
  0
VERTEX
  8
72_ARTEK_AKFURNITURE_D2SNAP
 10
0.506945
 20
-0.285393
 30
0
  0
VERTEX
  8
72_ARTEK_AKFURNITURE_D2SNAP
 10
0.508839
 20
-0.283839
 30
0
  0
VERTEX
  8
72_ARTEK_AKFURNITURE_D2SNAP
 10
0.510393
 20
-0.281945
 30
0
  0
VERTEX
  8
72_ARTEK_AKFURNITURE_D2SNAP
 10
0.511548
 20
-0.279784
 30
0
  0
VERTEX
  8
72_ARTEK_AKFURNITURE_D2SNAP
 10
0.51226
 20
-0.277439
 30
0
  0
VERTEX
  8
72_ARTEK_AKFURNITURE_D2SNAP
 10
0.5125
 20
-0.275
 30
0
  0
SEQEND
  0
POLYLINE
  8
72_ARTEK_AKFURNITURE_D2SNAP
 66
     1
 70
     0
 10
0.0
 20
0.0
 30
0.0
  0
VERTEX
  8
72_ARTEK_AKFURNITURE_D2SNAP
 10
0.482322
 20
-0.292678
 30
0
  0
VERTEX
  8
72_ARTEK_AKFURNITURE_D2SNAP
 10
0.517678
 20
-0.257322
 30
0
  0
SEQEND
  0
POLYLINE
  8
72_ARTEK_AKFURNITURE_D2SNAP
 66
     1
 70
     0
 10
0.0
 20
0.0
 30
0.0
  0
VERTEX
  8
72_ARTEK_AKFURNITURE_D2SNAP
 10
0.482322
 20
-0.257322
 30
0
  0
VERTEX
  8
72_ARTEK_AKFURNITURE_D2SNAP
 10
0.517678
 20
-0.292678
 30
0
  0
SEQEND
  0
POLYLINE
  8
72_ARTEK_AKFURNITURE_D2_SH_SHE
 66
     1
 70
     0
 10
0.0
 20
0.0
 30
0.0
  0
VERTEX
  8
72_ARTEK_AKFURNITURE_D2_SH_SHE
 10
0.999
 20
-0.55
 30
0
  0
VERTEX
  8
72_ARTEK_AKFURNITURE_D2_SH_SHE
 10
0.999174
 20
-0.549985
 30
0
  0
VERTEX
  8
72_ARTEK_AKFURNITURE_D2_SH_SHE
 10
0.999342
 20
-0.54994
 30
0
  0
VERTEX
  8
72_ARTEK_AKFURNITURE_D2_SH_SHE
 10
0.9995
 20
-0.549866
 30
0
  0
VERTEX
  8
72_ARTEK_AKFURNITURE_D2_SH_SHE
 10
0.999643
 20
-0.549766
 30
0
  0
VERTEX
  8
72_ARTEK_AKFURNITURE_D2_SH_SHE
 10
0.999766
 20
-0.549643
 30
0
  0
VERTEX
  8
72_ARTEK_AKFURNITURE_D2_SH_SHE
 10
0.999866
 20
-0.5495
 30
0
  0
VERTEX
  8
72_ARTEK_AKFURNITURE_D2_SH_SHE
 10
0.99994
 20
-0.549342
 30
0
  0
VERTEX
  8
72_ARTEK_AKFURNITURE_D2_SH_SHE
 10
0.999985
 20
-0.549174
 30
0
  0
VERTEX
  8
72_ARTEK_AKFURNITURE_D2_SH_SHE
 10
1
 20
-0.549
 30
0
  0
VERTEX
  8
72_ARTEK_AKFURNITURE_D2_SH_SHE
 10
1
 20
-0.349
 30
0
  0
VERTEX
  8
72_ARTEK_AKFURNITURE_D2_SH_SHE
 10
0
 20
-0.349
 30
0
  0
VERTEX
  8
72_ARTEK_AKFURNITURE_D2_SH_SHE
 10
0
 20
-0.549
 30
0
  0
VERTEX
  8
72_ARTEK_AKFURNITURE_D2_SH_SHE
 10
0
 20
-0.549
 30
0
  0
VERTEX
  8
72_ARTEK_AKFURNITURE_D2_SH_SHE
 10
1.51922e-005
 20
-0.549174
 30
0
  0
VERTEX
  8
72_ARTEK_AKFURNITURE_D2_SH_SHE
 10
6.03074e-005
 20
-0.549342
 30
0
  0
VERTEX
  8
72_ARTEK_AKFURNITURE_D2_SH_SHE
 10
0.000133975
 20
-0.5495
 30
0
  0
VERTEX
  8
72_ARTEK_AKFURNITURE_D2_SH_SHE
 10
0.000233956
 20
-0.549643
 30
0
  0
VERTEX
  8
72_ARTEK_AKFURNITURE_D2_SH_SHE
 10
0.000357212
 20
-0.549766
 30
0
  0
VERTEX
  8
72_ARTEK_AKFURNITURE_D2_SH_SHE
 10
0.0005
 20
-0.549866
 30
0
  0
VERTEX
  8
72_ARTEK_AKFURNITURE_D2_SH_SHE
 10
0.00065798
 20
-0.54994
 30
0
  0
VERTEX
  8
72_ARTEK_AKFURNITURE_D2_SH_SHE
 10
0.000826352
 20
-0.549985
 30
0
  0
VERTEX
  8
72_ARTEK_AKFURNITURE_D2_SH_SHE
 10
0.001
 20
-0.55
 30
0
  0
VERTEX
  8
72_ARTEK_AKFURNITURE_D2_SH_SHE
 10
0.999
 20
-0.55
 30
0
  0
SEQEND
  0
POLYLINE
  8
72_ARTEK_AKFURNITURE_D2_SH_SHE
 66
     1
 70
     0
 10
0.0
 20
0.0
 30
0.0
  0
VERTEX
  8
72_ARTEK_AKFURNITURE_D2_SH_SHE
 10
1
 20
-0.349
 30
0
  0
VERTEX
  8
72_ARTEK_AKFURNITURE_D2_SH_SHE
 10
1
 20
-0.001
 30
0
  0
VERTEX
  8
72_ARTEK_AKFURNITURE_D2_SH_SHE
 10
1
 20
-0.001
 30
0
  0
VERTEX
  8
72_ARTEK_AKFURNITURE_D2_SH_SHE
 10
0.999985
 20
-0.000826352
 30
0
  0
VERTEX
  8
72_ARTEK_AKFURNITURE_D2_SH_SHE
 10
0.99994
 20
-0.00065798
 30
0
  0
VERTEX
  8
72_ARTEK_AKFURNITURE_D2_SH_SHE
 10
0.999866
 20
-0.0005
 30
0
  0
VERTEX
  8
72_ARTEK_AKFURNITURE_D2_SH_SHE
 10
0.999766
 20
-0.000357212
 30
0
  0
VERTEX
  8
72_ARTEK_AKFURNITURE_D2_SH_SHE
 10
0.999643
 20
-0.000233956
 30
0
  0
VERTEX
  8
72_ARTEK_AKFURNITURE_D2_SH_SHE
 10
0.9995
 20
-0.000133975
 30
0
  0
VERTEX
  8
72_ARTEK_AKFURNITURE_D2_SH_SHE
 10
0.999342
 20
-6.03074e-005
 30
0
  0
VERTEX
  8
72_ARTEK_AKFURNITURE_D2_SH_SHE
 10
0.999174
 20
-1.51922e-005
 30
0
  0
VERTEX
  8
72_ARTEK_AKFURNITURE_D2_SH_SHE
 10
0.999
 20
-0
 30
0
  0
VERTEX
  8
72_ARTEK_AKFURNITURE_D2_SH_SHE
 10
0.001
 20
-0
 30
0
  0
VERTEX
  8
72_ARTEK_AKFURNITURE_D2_SH_SHE
 10
0.001
 20
-0
 30
0
  0
VERTEX
  8
72_ARTEK_AKFURNITURE_D2_SH_SHE
 10
0.000826352
 20
-1.51922e-005
 30
0
  0
VERTEX
  8
72_ARTEK_AKFURNITURE_D2_SH_SHE
 10
0.00065798
 20
-6.03074e-005
 30
0
  0
VERTEX
  8
72_ARTEK_AKFURNITURE_D2_SH_SHE
 10
0.0005
 20
-0.000133975
 30
0
  0
VERTEX
  8
72_ARTEK_AKFURNITURE_D2_SH_SHE
 10
0.000357212
 20
-0.000233956
 30
0
  0
VERTEX
  8
72_ARTEK_AKFURNITURE_D2_SH_SHE
 10
0.000233956
 20
-0.000357212
 30
0
  0
VERTEX
  8
72_ARTEK_AKFURNITURE_D2_SH_SHE
 10
0.000133975
 20
-0.0005
 30
0
  0
VERTEX
  8
72_ARTEK_AKFURNITURE_D2_SH_SHE
 10
6.03074e-005
 20
-0.00065798
 30
0
  0
VERTEX
  8
72_ARTEK_AKFURNITURE_D2_SH_SHE
 10
1.51922e-005
 20
-0.000826352
 30
0
  0
VERTEX
  8
72_ARTEK_AKFURNITURE_D2_SH_SHE
 10
0
 20
-0.001
 30
0
  0
VERTEX
  8
72_ARTEK_AKFURNITURE_D2_SH_SHE
 10
0
 20
-0.349
 30
0
  0
VERTEX
  8
72_ARTEK_AKFURNITURE_D2_SH_SHE
 10
1
 20
-0.349
 30
0
  0
SEQEND
  0
POLYLINE
  8
72_ARTEK_AKFURNITURE_D2SNAP
 66
     1
 70
     0
 10
0.0
 20
0.0
 30
0.0
  0
VERTEX
  8
72_ARTEK_AKFURNITURE_D2SNAP
 10
0.5125
 20
-0.275
 30
0
  0
VERTEX
  8
72_ARTEK_AKFURNITURE_D2SNAP
 10
0.51226
 20
-0.272561
 30
0
  0
VERTEX
  8
72_ARTEK_AKFURNITURE_D2SNAP
 10
0.511548
 20
-0.270216
 30
0
  0
VERTEX
  8
72_ARTEK_AKFURNITURE_D2SNAP
 10
0.510393
 20
-0.268055
 30
0
  0
VERTEX
  8
72_ARTEK_AKFURNITURE_D2SNAP
 10
0.508839
 20
-0.266161
 30
0
  0
VERTEX
  8
72_ARTEK_AKFURNITURE_D2SNAP
 10
0.506945
 20
-0.264607
 30
0
  0
VERTEX
  8
72_ARTEK_AKFURNITURE_D2SNAP
 10
0.504784
 20
-0.263452
 30
0
  0
VERTEX
  8
72_ARTEK_AKFURNITURE_D2SNAP
 10
0.502439
 20
-0.26274
 30
0
  0
VERTEX
  8
72_ARTEK_AKFURNITURE_D2SNAP
 10
0.5
 20
-0.2625
 30
0
  0
VERTEX
  8
72_ARTEK_AKFURNITURE_D2SNAP
 10
0.497561
 20
-0.26274
 30
0
  0
VERTEX
  8
72_ARTEK_AKFURNITURE_D2SNAP
 10
0.495216
 20
-0.263452
 30
0
  0
VERTEX
  8
72_ARTEK_AKFURNITURE_D2SNAP
 10
0.493055
 20
-0.264607
 30
0
  0
VERTEX
  8
72_ARTEK_AKFURNITURE_D2SNAP
 10
0.491161
 20
-0.266161
 30
0
  0
VERTEX
  8
72_ARTEK_AKFURNITURE_D2SNAP
 10
0.489607
 20
-0.268055
 30
0
  0
VERTEX
  8
72_ARTEK_AKFURNITURE_D2SNAP
 10
0.488452
 20
-0.270216
 30
0
  0
VERTEX
  8
72_ARTEK_AKFURNITURE_D2SNAP
 10
0.48774
 20
-0.272561
 30
0
  0
VERTEX
  8
72_ARTEK_AKFURNITURE_D2SNAP
 10
0.4875
 20
-0.275
 30
0
  0
VERTEX
  8
72_ARTEK_AKFURNITURE_D2SNAP
 10
0.48774
 20
-0.277439
 30
0
  0
VERTEX
  8
72_ARTEK_AKFURNITURE_D2SNAP
 10
0.488452
 20
-0.279784
 30
0
  0
VERTEX
  8
72_ARTEK_AKFURNITURE_D2SNAP
 10
0.489607
 20
-0.281945
 30
0
  0
VERTEX
  8
72_ARTEK_AKFURNITURE_D2SNAP
 10
0.491161
 20
-0.283839
 30
0
  0
VERTEX
  8
72_ARTEK_AKFURNITURE_D2SNAP
 10
0.493055
 20
-0.285393
 30
0
  0
VERTEX
  8
72_ARTEK_AKFURNITURE_D2SNAP
 10
0.495216
 20
-0.286548
 30
0
  0
VERTEX
  8
72_ARTEK_AKFURNITURE_D2SNAP
 10
0.497561
 20
-0.28726
 30
0
  0
VERTEX
  8
72_ARTEK_AKFURNITURE_D2SNAP
 10
0.5
 20
-0.2875
 30
0
  0
VERTEX
  8
72_ARTEK_AKFURNITURE_D2SNAP
 10
0.502439
 20
-0.28726
 30
0
  0
VERTEX
  8
72_ARTEK_AKFURNITURE_D2SNAP
 10
0.504784
 20
-0.286548
 30
0
  0
VERTEX
  8
72_ARTEK_AKFURNITURE_D2SNAP
 10
0.506945
 20
-0.285393
 30
0
  0
VERTEX
  8
72_ARTEK_AKFURNITURE_D2SNAP
 10
0.508839
 20
-0.283839
 30
0
  0
VERTEX
  8
72_ARTEK_AKFURNITURE_D2SNAP
 10
0.510393
 20
-0.281945
 30
0
  0
VERTEX
  8
72_ARTEK_AKFURNITURE_D2SNAP
 10
0.511548
 20
-0.279784
 30
0
  0
VERTEX
  8
72_ARTEK_AKFURNITURE_D2SNAP
 10
0.51226
 20
-0.277439
 30
0
  0
VERTEX
  8
72_ARTEK_AKFURNITURE_D2SNAP
 10
0.5125
 20
-0.275
 30
0
  0
SEQEND
  0
POLYLINE
  8
72_ARTEK_AKFURNITURE_D2SNAP
 66
     1
 70
     0
 10
0.0
 20
0.0
 30
0.0
  0
VERTEX
  8
72_ARTEK_AKFURNITURE_D2SNAP
 10
0.482322
 20
-0.292678
 30
0
  0
VERTEX
  8
72_ARTEK_AKFURNITURE_D2SNAP
 10
0.517678
 20
-0.257322
 30
0
  0
SEQEND
  0
POLYLINE
  8
72_ARTEK_AKFURNITURE_D2SNAP
 66
     1
 70
     0
 10
0.0
 20
0.0
 30
0.0
  0
VERTEX
  8
72_ARTEK_AKFURNITURE_D2SNAP
 10
0.482322
 20
-0.257322
 30
0
  0
VERTEX
  8
72_ARTEK_AKFURNITURE_D2SNAP
 10
0.517678
 20
-0.292678
 30
0
  0
SEQEND
  0
ENDBLK
  8
0
  0
BLOCK
  8
0
  2
OB2D__000001
 70
    64
 10
0.0
 20
0.0
 30
0.0
  3
OB2D__000001
  0
ENDBLK
  8
0
  0
ENDSEC
  0
SECTION
  2
ENTITIES
  0
INSERT
  8
72OFGO2D01_GRAFIK
  2
OB2D__000000
 10
0.0
 20
0.0
 30
0.0
  0
INSERT
  8
72OFGO2D01_GRAFIK
  2
OB2D__000001
 10
0.0
 20
0.0
 30
0.0
  0
ENDSEC
  0
EOF
