  0
SECTION
  2
HEADER
  9
$ACADVER
  1
AC1009
  9
$INSBASE
 10
0.0
 20
0.0
 30
0.0
  9
$EXTMIN
 10
-5.55112e-017
 20
-0.35
 30
0
  9
$EXTMAX
 10
0.35
 20
-0
 30
0.299885
  0
ENDSEC
  0
SECTION
  2
TABLES
  0
TABLE
  2
LTYPE
 70
     2
  0
LTYPE
  2
CONTINUOUS
 70
    64
  3
________
 72
    65
 73
     0
 40
0.0
  0
LTYPE
  2
DASHED
 70
     0
  3
__ __ __
 72
    65
 73
     2
 40
0.75
 49
0.5
 49
-0.25
  0
LTYPE
  2
DOT
 70
     0
  3
. . . .
 72
    65
 73
     2
 40
0.25
 49
0.0
 49
-0.25
  0
LTYPE
  2
DASHDOT
 70
     0
  3
_ . _ .
 72
    65
 73
     4
 40
1.0
 49
0.5
 49
-0.25
 49
-0.0
 49
-0.25
  0
LTYPE
  2
DASHDOUBLEDOT
 70
     0
  3
__..__..
 72
    65
 73
     6
 40
1.25
 49
0.5
 49
-0.25
 49
-0.0
 49
-0.25
 49
-0.0
 49
-0.25
  0
LTYPE
  2
DASHTRIPLEDOT
 70
     0
  3
__...__...__
 72
    65
 73
     8
 40
1.5
 49
0.5
 49
-0.25
 49
-0.0
 49
-0.25
 49
-0.0
 49
-0.25
 49
-0.0
 49
-0.25
  0
ENDTAB
  0
TABLE
  2
LAYER
 70
    13
  0
LAYER
  2
0
 70
    64
 62
     7
  6
CONTINUOUS
  0
LAYER
  2
CEILING
 70
    64
 62
     7
  6
CONTINUOUS
  0
LAYER
  2
FLOORBLOCK
 70
    64
 62
     7
  6
CONTINUOUS
  0
LAYER
  2
FLOORHATCHING
 70
    64
 62
     7
  6
CONTINUOUS
  0
LAYER
  2
SNAP
 70
    64
 62
     7
  6
CONTINUOUS
  0
LAYER
  2
ATTACHPOINT
 70
    64
 62
     7
  6
CONTINUOUS
  0
LAYER
  2
72_ARTEK_AKFURNITURE_D2_SH_ATT
 70
    64
 62
8
  6
CONTINUOUS
  0
LAYER
  2
72_ARTEK_AKFURNITURE_D2SNAP
 70
    64
 62
1
  6
CONTINUOUS
  0
LAYER
  2
72_ARTEK_AKFURNITURE_D2_SH_FRA
 70
    64
 62
18
  6
CONTINUOUS
  0
LAYER
  2
72_ARTEK_AKFURNITURE_D2_SH_SHE
 70
    64
 62
18
  6
CONTINUOUS
  0
LAYER
  2
72_ARTEK_AKFURNITURE_D2_TB_ATT
 70
    64
 62
8
  6
CONTINUOUS
  0
LAYER
  2
72_ARTEK_AKFURNITURE_D2_TB_TAB
 70
    64
 62
18
  6
CONTINUOUS
  0
LAYER
  2
72OFGO2D01_GRAFIK
 70
    64
 62
     1
  6
CONTINUOUS
  0
ENDTAB
  0
TABLE
  2
STYLE
 70
     1
  0
STYLE
  2
STANDARD
 70
     0
 40
0.0
 41
1.0
 50
0.0
 71
     0
 42
0.2
  3
txt
  4

  0
ENDTAB
  0
TABLE
  2
APPID
 70
    64
  0
APPID
  2
ACAD
 70
    64
  0
APPID
  2
OFML_10
 70
    64
  0
ENDTAB
  0
ENDSEC
  0
SECTION
  2
BLOCKS
  0
BLOCK
  8
0
  2
OB2D__000000
 70
    64
 10
0.0
 20
0.0
 30
0.0
  3
OB2D__000000
  0
POLYLINE
  8
72_ARTEK_AKFURNITURE_D2_TB_ATT
 66
     1
 70
     0
 10
0.0
 20
0.0
 30
0.0
  0
VERTEX
  8
72_ARTEK_AKFURNITURE_D2_TB_ATT
 10
0.1875
 20
-0.04
 30
0
  0
VERTEX
  8
72_ARTEK_AKFURNITURE_D2_TB_ATT
 10
0.1875
 20
-0
 30
0
  0
VERTEX
  8
72_ARTEK_AKFURNITURE_D2_TB_ATT
 10
0.1625
 20
-0
 30
0
  0
VERTEX
  8
72_ARTEK_AKFURNITURE_D2_TB_ATT
 10
0.1625
 20
-0.04
 30
0
  0
VERTEX
  8
72_ARTEK_AKFURNITURE_D2_TB_ATT
 10
0.1875
 20
-0.04
 30
0
  0
SEQEND
  0
POLYLINE
  8
72_ARTEK_AKFURNITURE_D2_TB_ATT
 66
     1
 70
     0
 10
0.0
 20
0.0
 30
0.0
  0
VERTEX
  8
72_ARTEK_AKFURNITURE_D2_TB_ATT
 10
0.1625
 20
-0.04
 30
0
  0
VERTEX
  8
72_ARTEK_AKFURNITURE_D2_TB_ATT
 10
0.1625
 20
-0.305
 30
0
  0
VERTEX
  8
72_ARTEK_AKFURNITURE_D2_TB_ATT
 10
0.1875
 20
-0.305
 30
0
  0
VERTEX
  8
72_ARTEK_AKFURNITURE_D2_TB_ATT
 10
0.1875
 20
-0.04
 30
0
  0
VERTEX
  8
72_ARTEK_AKFURNITURE_D2_TB_ATT
 10
0.1625
 20
-0.04
 30
0
  0
SEQEND
  0
POLYLINE
  8
72_ARTEK_AKFURNITURE_D2SNAP
 66
     1
 70
     0
 10
0.0
 20
0.0
 30
0.0
  0
VERTEX
  8
72_ARTEK_AKFURNITURE_D2SNAP
 10
0.1875
 20
-0
 30
0
  0
VERTEX
  8
72_ARTEK_AKFURNITURE_D2SNAP
 10
0.18726
 20
0.00243863
 30
0
  0
VERTEX
  8
72_ARTEK_AKFURNITURE_D2SNAP
 10
0.186548
 20
0.00478354
 30
0
  0
VERTEX
  8
72_ARTEK_AKFURNITURE_D2SNAP
 10
0.185393
 20
0.00694463
 30
0
  0
VERTEX
  8
72_ARTEK_AKFURNITURE_D2SNAP
 10
0.183839
 20
0.00883883
 30
0
  0
VERTEX
  8
72_ARTEK_AKFURNITURE_D2SNAP
 10
0.181945
 20
0.0103934
 30
0
  0
VERTEX
  8
72_ARTEK_AKFURNITURE_D2SNAP
 10
0.179784
 20
0.0115485
 30
0
  0
VERTEX
  8
72_ARTEK_AKFURNITURE_D2SNAP
 10
0.177439
 20
0.0122598
 30
0
  0
VERTEX
  8
72_ARTEK_AKFURNITURE_D2SNAP
 10
0.175
 20
0.0125
 30
0
  0
VERTEX
  8
72_ARTEK_AKFURNITURE_D2SNAP
 10
0.172561
 20
0.0122598
 30
0
  0
VERTEX
  8
72_ARTEK_AKFURNITURE_D2SNAP
 10
0.170216
 20
0.0115485
 30
0
  0
VERTEX
  8
72_ARTEK_AKFURNITURE_D2SNAP
 10
0.168055
 20
0.0103934
 30
0
  0
VERTEX
  8
72_ARTEK_AKFURNITURE_D2SNAP
 10
0.166161
 20
0.00883883
 30
0
  0
VERTEX
  8
72_ARTEK_AKFURNITURE_D2SNAP
 10
0.164607
 20
0.00694463
 30
0
  0
VERTEX
  8
72_ARTEK_AKFURNITURE_D2SNAP
 10
0.163452
 20
0.00478354
 30
0
  0
VERTEX
  8
72_ARTEK_AKFURNITURE_D2SNAP
 10
0.16274
 20
0.00243863
 30
0
  0
VERTEX
  8
72_ARTEK_AKFURNITURE_D2SNAP
 10
0.1625
 20
3.15316e-018
 30
0
  0
VERTEX
  8
72_ARTEK_AKFURNITURE_D2SNAP
 10
0.16274
 20
-0.00243863
 30
0
  0
VERTEX
  8
72_ARTEK_AKFURNITURE_D2SNAP
 10
0.163452
 20
-0.00478354
 30
0
  0
VERTEX
  8
72_ARTEK_AKFURNITURE_D2SNAP
 10
0.164607
 20
-0.00694463
 30
0
  0
VERTEX
  8
72_ARTEK_AKFURNITURE_D2SNAP
 10
0.166161
 20
-0.00883883
 30
0
  0
VERTEX
  8
72_ARTEK_AKFURNITURE_D2SNAP
 10
0.168055
 20
-0.0103934
 30
0
  0
VERTEX
  8
72_ARTEK_AKFURNITURE_D2SNAP
 10
0.170216
 20
-0.0115485
 30
0
  0
VERTEX
  8
72_ARTEK_AKFURNITURE_D2SNAP
 10
0.172561
 20
-0.0122598
 30
0
  0
VERTEX
  8
72_ARTEK_AKFURNITURE_D2SNAP
 10
0.175
 20
-0.0125
 30
0
  0
VERTEX
  8
72_ARTEK_AKFURNITURE_D2SNAP
 10
0.177439
 20
-0.0122598
 30
0
  0
VERTEX
  8
72_ARTEK_AKFURNITURE_D2SNAP
 10
0.179784
 20
-0.0115485
 30
0
  0
VERTEX
  8
72_ARTEK_AKFURNITURE_D2SNAP
 10
0.181945
 20
-0.0103934
 30
0
  0
VERTEX
  8
72_ARTEK_AKFURNITURE_D2SNAP
 10
0.183839
 20
-0.00883883
 30
0
  0
VERTEX
  8
72_ARTEK_AKFURNITURE_D2SNAP
 10
0.185393
 20
-0.00694463
 30
0
  0
VERTEX
  8
72_ARTEK_AKFURNITURE_D2SNAP
 10
0.186548
 20
-0.00478354
 30
0
  0
VERTEX
  8
72_ARTEK_AKFURNITURE_D2SNAP
 10
0.18726
 20
-0.00243863
 30
0
  0
VERTEX
  8
72_ARTEK_AKFURNITURE_D2SNAP
 10
0.1875
 20
-0
 30
0
  0
SEQEND
  0
POLYLINE
  8
72_ARTEK_AKFURNITURE_D2SNAP
 66
     1
 70
     0
 10
0.0
 20
0.0
 30
0.0
  0
VERTEX
  8
72_ARTEK_AKFURNITURE_D2SNAP
 10
0.157322
 20
-0.0176777
 30
0
  0
VERTEX
  8
72_ARTEK_AKFURNITURE_D2SNAP
 10
0.192678
 20
0.0176777
 30
0
  0
SEQEND
  0
POLYLINE
  8
72_ARTEK_AKFURNITURE_D2SNAP
 66
     1
 70
     0
 10
0.0
 20
0.0
 30
0.0
  0
VERTEX
  8
72_ARTEK_AKFURNITURE_D2SNAP
 10
0.157322
 20
0.0176777
 30
0
  0
VERTEX
  8
72_ARTEK_AKFURNITURE_D2SNAP
 10
0.192678
 20
-0.0176777
 30
0
  0
SEQEND
  0
POLYLINE
  8
72_ARTEK_AKFURNITURE_D2_TB_TAB
 66
     1
 70
     0
 10
0.0
 20
0.0
 30
0.0
  0
VERTEX
  8
72_ARTEK_AKFURNITURE_D2_TB_TAB
 10
0.349789
 20
-0.175
 30
0
  0
VERTEX
  8
72_ARTEK_AKFURNITURE_D2_TB_TAB
 10
0.346431
 20
-0.1409
 30
0
  0
VERTEX
  8
72_ARTEK_AKFURNITURE_D2_TB_TAB
 10
0.336484
 20
-0.108111
 30
0
  0
VERTEX
  8
72_ARTEK_AKFURNITURE_D2_TB_TAB
 10
0.320332
 20
-0.0778923
 30
0
  0
VERTEX
  8
72_ARTEK_AKFURNITURE_D2_TB_TAB
 10
0.298595
 20
-0.0514054
 30
0
  0
VERTEX
  8
72_ARTEK_AKFURNITURE_D2_TB_TAB
 10
0.272108
 20
-0.0296681
 30
0
  0
VERTEX
  8
72_ARTEK_AKFURNITURE_D2_TB_TAB
 10
0.241889
 20
-0.0135158
 30
0
  0
VERTEX
  8
72_ARTEK_AKFURNITURE_D2_TB_TAB
 10
0.2091
 20
-0.00356932
 30
0
  0
VERTEX
  8
72_ARTEK_AKFURNITURE_D2_TB_TAB
 10
0.175
 20
-0.000210795
 30
0
  0
VERTEX
  8
72_ARTEK_AKFURNITURE_D2_TB_TAB
 10
0.1409
 20
-0.00356932
 30
0
  0
VERTEX
  8
72_ARTEK_AKFURNITURE_D2_TB_TAB
 10
0.108111
 20
-0.0135158
 30
0
  0
VERTEX
  8
72_ARTEK_AKFURNITURE_D2_TB_TAB
 10
0.0778923
 20
-0.0296681
 30
0
  0
VERTEX
  8
72_ARTEK_AKFURNITURE_D2_TB_TAB
 10
0.0514054
 20
-0.0514054
 30
0
  0
VERTEX
  8
72_ARTEK_AKFURNITURE_D2_TB_TAB
 10
0.0296681
 20
-0.0778923
 30
0
  0
VERTEX
  8
72_ARTEK_AKFURNITURE_D2_TB_TAB
 10
0.0135158
 20
-0.108111
 30
0
  0
VERTEX
  8
72_ARTEK_AKFURNITURE_D2_TB_TAB
 10
0.00356932
 20
-0.1409
 30
0
  0
VERTEX
  8
72_ARTEK_AKFURNITURE_D2_TB_TAB
 10
0.000210795
 20
-0.175
 30
0
  0
VERTEX
  8
72_ARTEK_AKFURNITURE_D2_TB_TAB
 10
0.00356932
 20
-0.2091
 30
0
  0
VERTEX
  8
72_ARTEK_AKFURNITURE_D2_TB_TAB
 10
0.0135158
 20
-0.241889
 30
0
  0
VERTEX
  8
72_ARTEK_AKFURNITURE_D2_TB_TAB
 10
0.0296681
 20
-0.272108
 30
0
  0
VERTEX
  8
72_ARTEK_AKFURNITURE_D2_TB_TAB
 10
0.0514054
 20
-0.298595
 30
0
  0
VERTEX
  8
72_ARTEK_AKFURNITURE_D2_TB_TAB
 10
0.0778923
 20
-0.320332
 30
0
  0
VERTEX
  8
72_ARTEK_AKFURNITURE_D2_TB_TAB
 10
0.108111
 20
-0.336484
 30
0
  0
VERTEX
  8
72_ARTEK_AKFURNITURE_D2_TB_TAB
 10
0.1409
 20
-0.346431
 30
0
  0
VERTEX
  8
72_ARTEK_AKFURNITURE_D2_TB_TAB
 10
0.175
 20
-0.349789
 30
0
  0
VERTEX
  8
72_ARTEK_AKFURNITURE_D2_TB_TAB
 10
0.2091
 20
-0.346431
 30
0
  0
VERTEX
  8
72_ARTEK_AKFURNITURE_D2_TB_TAB
 10
0.241889
 20
-0.336484
 30
0
  0
VERTEX
  8
72_ARTEK_AKFURNITURE_D2_TB_TAB
 10
0.272108
 20
-0.320332
 30
0
  0
VERTEX
  8
72_ARTEK_AKFURNITURE_D2_TB_TAB
 10
0.298595
 20
-0.298595
 30
0
  0
VERTEX
  8
72_ARTEK_AKFURNITURE_D2_TB_TAB
 10
0.320332
 20
-0.272108
 30
0
  0
VERTEX
  8
72_ARTEK_AKFURNITURE_D2_TB_TAB
 10
0.336484
 20
-0.241889
 30
0
  0
VERTEX
  8
72_ARTEK_AKFURNITURE_D2_TB_TAB
 10
0.346431
 20
-0.2091
 30
0
  0
VERTEX
  8
72_ARTEK_AKFURNITURE_D2_TB_TAB
 10
0.349789
 20
-0.175
 30
0
  0
SEQEND
  0
POLYLINE
  8
72_ARTEK_AKFURNITURE_D2SNAP
 66
     1
 70
     0
 10
0.0
 20
0.0
 30
0.0
  0
VERTEX
  8
72_ARTEK_AKFURNITURE_D2SNAP
 10
0.1875
 20
-0
 30
0
  0
VERTEX
  8
72_ARTEK_AKFURNITURE_D2SNAP
 10
0.18726
 20
0.00243863
 30
0
  0
VERTEX
  8
72_ARTEK_AKFURNITURE_D2SNAP
 10
0.186548
 20
0.00478354
 30
0
  0
VERTEX
  8
72_ARTEK_AKFURNITURE_D2SNAP
 10
0.185393
 20
0.00694463
 30
0
  0
VERTEX
  8
72_ARTEK_AKFURNITURE_D2SNAP
 10
0.183839
 20
0.00883883
 30
0
  0
VERTEX
  8
72_ARTEK_AKFURNITURE_D2SNAP
 10
0.181945
 20
0.0103934
 30
0
  0
VERTEX
  8
72_ARTEK_AKFURNITURE_D2SNAP
 10
0.179784
 20
0.0115485
 30
0
  0
VERTEX
  8
72_ARTEK_AKFURNITURE_D2SNAP
 10
0.177439
 20
0.0122598
 30
0
  0
VERTEX
  8
72_ARTEK_AKFURNITURE_D2SNAP
 10
0.175
 20
0.0125
 30
0
  0
VERTEX
  8
72_ARTEK_AKFURNITURE_D2SNAP
 10
0.172561
 20
0.0122598
 30
0
  0
VERTEX
  8
72_ARTEK_AKFURNITURE_D2SNAP
 10
0.170216
 20
0.0115485
 30
0
  0
VERTEX
  8
72_ARTEK_AKFURNITURE_D2SNAP
 10
0.168055
 20
0.0103934
 30
0
  0
VERTEX
  8
72_ARTEK_AKFURNITURE_D2SNAP
 10
0.166161
 20
0.00883883
 30
0
  0
VERTEX
  8
72_ARTEK_AKFURNITURE_D2SNAP
 10
0.164607
 20
0.00694463
 30
0
  0
VERTEX
  8
72_ARTEK_AKFURNITURE_D2SNAP
 10
0.163452
 20
0.00478354
 30
0
  0
VERTEX
  8
72_ARTEK_AKFURNITURE_D2SNAP
 10
0.16274
 20
0.00243863
 30
0
  0
VERTEX
  8
72_ARTEK_AKFURNITURE_D2SNAP
 10
0.1625
 20
3.15316e-018
 30
0
  0
VERTEX
  8
72_ARTEK_AKFURNITURE_D2SNAP
 10
0.16274
 20
-0.00243863
 30
0
  0
VERTEX
  8
72_ARTEK_AKFURNITURE_D2SNAP
 10
0.163452
 20
-0.00478354
 30
0
  0
VERTEX
  8
72_ARTEK_AKFURNITURE_D2SNAP
 10
0.164607
 20
-0.00694463
 30
0
  0
VERTEX
  8
72_ARTEK_AKFURNITURE_D2SNAP
 10
0.166161
 20
-0.00883883
 30
0
  0
VERTEX
  8
72_ARTEK_AKFURNITURE_D2SNAP
 10
0.168055
 20
-0.0103934
 30
0
  0
VERTEX
  8
72_ARTEK_AKFURNITURE_D2SNAP
 10
0.170216
 20
-0.0115485
 30
0
  0
VERTEX
  8
72_ARTEK_AKFURNITURE_D2SNAP
 10
0.172561
 20
-0.0122598
 30
0
  0
VERTEX
  8
72_ARTEK_AKFURNITURE_D2SNAP
 10
0.175
 20
-0.0125
 30
0
  0
VERTEX
  8
72_ARTEK_AKFURNITURE_D2SNAP
 10
0.177439
 20
-0.0122598
 30
0
  0
VERTEX
  8
72_ARTEK_AKFURNITURE_D2SNAP
 10
0.179784
 20
-0.0115485
 30
0
  0
VERTEX
  8
72_ARTEK_AKFURNITURE_D2SNAP
 10
0.181945
 20
-0.0103934
 30
0
  0
VERTEX
  8
72_ARTEK_AKFURNITURE_D2SNAP
 10
0.183839
 20
-0.00883883
 30
0
  0
VERTEX
  8
72_ARTEK_AKFURNITURE_D2SNAP
 10
0.185393
 20
-0.00694463
 30
0
  0
VERTEX
  8
72_ARTEK_AKFURNITURE_D2SNAP
 10
0.186548
 20
-0.00478354
 30
0
  0
VERTEX
  8
72_ARTEK_AKFURNITURE_D2SNAP
 10
0.18726
 20
-0.00243863
 30
0
  0
VERTEX
  8
72_ARTEK_AKFURNITURE_D2SNAP
 10
0.1875
 20
-0
 30
0
  0
SEQEND
  0
POLYLINE
  8
72_ARTEK_AKFURNITURE_D2SNAP
 66
     1
 70
     0
 10
0.0
 20
0.0
 30
0.0
  0
VERTEX
  8
72_ARTEK_AKFURNITURE_D2SNAP
 10
0.157322
 20
-0.0176777
 30
0
  0
VERTEX
  8
72_ARTEK_AKFURNITURE_D2SNAP
 10
0.192678
 20
0.0176777
 30
0
  0
SEQEND
  0
POLYLINE
  8
72_ARTEK_AKFURNITURE_D2SNAP
 66
     1
 70
     0
 10
0.0
 20
0.0
 30
0.0
  0
VERTEX
  8
72_ARTEK_AKFURNITURE_D2SNAP
 10
0.157322
 20
0.0176777
 30
0
  0
VERTEX
  8
72_ARTEK_AKFURNITURE_D2SNAP
 10
0.192678
 20
-0.0176777
 30
0
  0
SEQEND
  0
ENDBLK
  8
0
  0
ENDSEC
  0
SECTION
  2
ENTITIES
  0
INSERT
  8
72OFGO2D01_GRAFIK
  2
OB2D__000000
 10
0.0
 20
0.0
 30
0.0
  0
ENDSEC
  0
EOF
