  0
SECTION
  2
HEADER
  9
$ACADVER
  1
AC1009
  9
$INSBASE
 10
0.0
 20
0.0
 30
0.0
  9
$EXTMIN
 10
-5.03
 20
-5.03
 30
-1.03
  9
$EXTMAX
 10
5.03
 20
5
 30
5.03
  0
ENDSEC
  0
SECTION
  2
TABLES
  0
TABLE
  2
LTYPE
 70
     2
  0
LTYPE
  2
CONTINUOUS
 70
    64
  3
________
 72
    65
 73
     0
 40
0.0
  0
LTYPE
  2
DASHED
 70
     0
  3
__ __ __
 72
    65
 73
     2
 40
0.75
 49
0.5
 49
-0.25
  0
LTYPE
  2
DOT
 70
     0
  3
. . . .
 72
    65
 73
     2
 40
0.25
 49
0.0
 49
-0.25
  0
LTYPE
  2
DASHDOT
 70
     0
  3
_ . _ .
 72
    65
 73
     4
 40
1.0
 49
0.5
 49
-0.25
 49
-0.0
 49
-0.25
  0
LTYPE
  2
DASHDOUBLEDOT
 70
     0
  3
__..__..
 72
    65
 73
     6
 40
1.25
 49
0.5
 49
-0.25
 49
-0.0
 49
-0.25
 49
-0.0
 49
-0.25
  0
LTYPE
  2
DASHTRIPLEDOT
 70
     0
  3
__...__...__
 72
    65
 73
     8
 40
1.5
 49
0.5
 49
-0.25
 49
-0.0
 49
-0.25
 49
-0.0
 49
-0.25
 49
-0.0
 49
-0.25
  0
ENDTAB
  0
TABLE
  2
LAYER
 70
    10
  0
LAYER
  2
0
 70
    64
 62
     7
  6
CONTINUOUS
  0
LAYER
  2
CEILING
 70
    64
 62
     7
  6
CONTINUOUS
  0
LAYER
  2
FLOORBLOCK
 70
    64
 62
     7
  6
CONTINUOUS
  0
LAYER
  2
FLOORHATCHING
 70
    64
 62
     7
  6
CONTINUOUS
  0
LAYER
  2
SNAP
 70
    64
 62
     7
  6
CONTINUOUS
  0
LAYER
  2
ATTACHPOINT
 70
    64
 62
     7
  6
CONTINUOUS
  0
LAYER
  2
72_ARTEK_AKFURNITURE_D2_CH_FRA
 70
    64
 62
18
  6
CONTINUOUS
  0
LAYER
  2
72_ARTEK_AKFURNITURE_D2SNAP
 70
    64
 62
1
  6
CONTINUOUS
  0
LAYER
  2
72_ARTEK_AKFURNITURE_D2_CH_SEA
 70
    64
 62
18
  6
CONTINUOUS
  0
LAYER
  2
72OFGO2D01_GRAFIK
 70
    64
 62
     1
  6
CONTINUOUS
  0
ENDTAB
  0
TABLE
  2
STYLE
 70
     1
  0
STYLE
  2
STANDARD
 70
     0
 40
0.0
 41
1.0
 50
0.0
 71
     0
 42
0.2
  3
txt
  4

  0
ENDTAB
  0
TABLE
  2
APPID
 70
    64
  0
APPID
  2
ACAD
 70
    64
  0
APPID
  2
OFML_10
 70
    64
  0
ENDTAB
  0
ENDSEC
  0
SECTION
  2
BLOCKS
  0
BLOCK
  8
0
  2
OB2D__000000
 70
    64
 10
0.0
 20
0.0
 30
0.0
  3
OB2D__000000
  0
POLYLINE
  8
72_ARTEK_AKFURNITURE_D2_CH_FRA
 66
     1
 70
     0
 10
0.0
 20
0.0
 30
0.0
  0
VERTEX
  8
72_ARTEK_AKFURNITURE_D2_CH_FRA
 10
0.0294999
 20
-0.256208
 30
0
  0
VERTEX
  8
72_ARTEK_AKFURNITURE_D2_CH_FRA
 10
0.4615
 20
-0.256208
 30
0
  0
VERTEX
  8
72_ARTEK_AKFURNITURE_D2_CH_FRA
 10
0.4615
 20
-0.217656
 30
0
  0
VERTEX
  8
72_ARTEK_AKFURNITURE_D2_CH_FRA
 10
0.4615
 20
-0.217656
 30
0
  0
VERTEX
  8
72_ARTEK_AKFURNITURE_D2_CH_FRA
 10
0.4615
 20
-0.217245
 30
0
  0
VERTEX
  8
72_ARTEK_AKFURNITURE_D2_CH_FRA
 10
0.0295
 20
-0.217245
 30
0
  0
VERTEX
  8
72_ARTEK_AKFURNITURE_D2_CH_FRA
 10
0.0295
 20
-0.217656
 30
0
  0
VERTEX
  8
72_ARTEK_AKFURNITURE_D2_CH_FRA
 10
0.0295
 20
-0.217656
 30
0
  0
VERTEX
  8
72_ARTEK_AKFURNITURE_D2_CH_FRA
 10
0.0294999
 20
-0.256208
 30
0
  0
SEQEND
  0
POLYLINE
  8
72_ARTEK_AKFURNITURE_D2_CH_FRA
 66
     1
 70
     0
 10
0.0
 20
0.0
 30
0.0
  0
VERTEX
  8
72_ARTEK_AKFURNITURE_D2_CH_FRA
 10
0.2455
 20
0.238018
 30
0
  0
VERTEX
  8
72_ARTEK_AKFURNITURE_D2_CH_FRA
 10
0.279805
 20
0.238075
 30
0
  0
VERTEX
  8
72_ARTEK_AKFURNITURE_D2_CH_FRA
 10
0.304292
 20
0.237374
 30
0
  0
VERTEX
  8
72_ARTEK_AKFURNITURE_D2_CH_FRA
 10
0.323357
 20
0.236514
 30
0
  0
VERTEX
  8
72_ARTEK_AKFURNITURE_D2_CH_FRA
 10
0.347991
 20
0.235424
 30
0
  0
VERTEX
  8
72_ARTEK_AKFURNITURE_D2_CH_FRA
 10
0.372493
 20
0.233618
 30
0
  0
VERTEX
  8
72_ARTEK_AKFURNITURE_D2_CH_FRA
 10
0.391564
 20
0.232101
 30
0
  0
VERTEX
  8
72_ARTEK_AKFURNITURE_D2_CH_FRA
 10
0.41604
 20
0.229928
 30
0
  0
VERTEX
  8
72_ARTEK_AKFURNITURE_D2_CH_FRA
 10
0.440593
 20
0.227037
 30
0
  0
VERTEX
  8
72_ARTEK_AKFURNITURE_D2_CH_FRA
 10
0.461513
 20
0.224612
 30
0
  0
VERTEX
  8
72_ARTEK_AKFURNITURE_D2_CH_FRA
 10
0.461512
 20
0.237412
 30
0
  0
VERTEX
  8
72_ARTEK_AKFURNITURE_D2_CH_FRA
 10
0.461512
 20
0.247065
 30
0
  0
VERTEX
  8
72_ARTEK_AKFURNITURE_D2_CH_FRA
 10
0.443298
 20
0.24918
 30
0
  0
VERTEX
  8
72_ARTEK_AKFURNITURE_D2_CH_FRA
 10
0.418442
 20
0.252107
 30
0
  0
VERTEX
  8
72_ARTEK_AKFURNITURE_D2_CH_FRA
 10
0.393525
 20
0.254318
 30
0
  0
VERTEX
  8
72_ARTEK_AKFURNITURE_D2_CH_FRA
 10
0.374279
 20
0.255849
 30
0
  0
VERTEX
  8
72_ARTEK_AKFURNITURE_D2_CH_FRA
 10
0.349344
 20
0.257687
 30
0
  0
VERTEX
  8
72_ARTEK_AKFURNITURE_D2_CH_FRA
 10
0.324378
 20
0.25879
 30
0
  0
VERTEX
  8
72_ARTEK_AKFURNITURE_D2_CH_FRA
 10
0.305156
 20
0.259657
 30
0
  0
VERTEX
  8
72_ARTEK_AKFURNITURE_D2_CH_FRA
 10
0.280129
 20
0.260374
 30
0
  0
VERTEX
  8
72_ARTEK_AKFURNITURE_D2_CH_FRA
 10
0.255073
 20
0.260332
 30
0
  0
VERTEX
  8
72_ARTEK_AKFURNITURE_D2_CH_FRA
 10
0.235927
 20
0.260332
 30
0
  0
VERTEX
  8
72_ARTEK_AKFURNITURE_D2_CH_FRA
 10
0.210871
 20
0.260374
 30
0
  0
VERTEX
  8
72_ARTEK_AKFURNITURE_D2_CH_FRA
 10
0.185844
 20
0.259657
 30
0
  0
VERTEX
  8
72_ARTEK_AKFURNITURE_D2_CH_FRA
 10
0.166622
 20
0.25879
 30
0
  0
VERTEX
  8
72_ARTEK_AKFURNITURE_D2_CH_FRA
 10
0.141656
 20
0.257687
 30
0
  0
VERTEX
  8
72_ARTEK_AKFURNITURE_D2_CH_FRA
 10
0.116721
 20
0.255849
 30
0
  0
VERTEX
  8
72_ARTEK_AKFURNITURE_D2_CH_FRA
 10
0.0974751
 20
0.254318
 30
0
  0
VERTEX
  8
72_ARTEK_AKFURNITURE_D2_CH_FRA
 10
0.0725581
 20
0.252107
 30
0
  0
VERTEX
  8
72_ARTEK_AKFURNITURE_D2_CH_FRA
 10
0.0477025
 20
0.24918
 30
0
  0
VERTEX
  8
72_ARTEK_AKFURNITURE_D2_CH_FRA
 10
0.0294877
 20
0.247065
 30
0
  0
VERTEX
  8
72_ARTEK_AKFURNITURE_D2_CH_FRA
 10
0.0294884
 20
0.237412
 30
0
  0
VERTEX
  8
72_ARTEK_AKFURNITURE_D2_CH_FRA
 10
0.0294875
 20
0.224612
 30
0
  0
VERTEX
  8
72_ARTEK_AKFURNITURE_D2_CH_FRA
 10
0.0504073
 20
0.227037
 30
0
  0
VERTEX
  8
72_ARTEK_AKFURNITURE_D2_CH_FRA
 10
0.0749595
 20
0.229928
 30
0
  0
VERTEX
  8
72_ARTEK_AKFURNITURE_D2_CH_FRA
 10
0.099436
 20
0.232101
 30
0
  0
VERTEX
  8
72_ARTEK_AKFURNITURE_D2_CH_FRA
 10
0.118507
 20
0.233618
 30
0
  0
VERTEX
  8
72_ARTEK_AKFURNITURE_D2_CH_FRA
 10
0.143009
 20
0.235424
 30
0
  0
VERTEX
  8
72_ARTEK_AKFURNITURE_D2_CH_FRA
 10
0.167643
 20
0.236514
 30
0
  0
VERTEX
  8
72_ARTEK_AKFURNITURE_D2_CH_FRA
 10
0.186708
 20
0.237374
 30
0
  0
VERTEX
  8
72_ARTEK_AKFURNITURE_D2_CH_FRA
 10
0.211195
 20
0.238075
 30
0
  0
VERTEX
  8
72_ARTEK_AKFURNITURE_D2_CH_FRA
 10
0.2455
 20
0.238018
 30
0
  0
SEQEND
  0
POLYLINE
  8
72_ARTEK_AKFURNITURE_D2_CH_FRA
 66
     1
 70
     0
 10
0.0
 20
0.0
 30
0.0
  0
VERTEX
  8
72_ARTEK_AKFURNITURE_D2_CH_FRA
 10
0.2455
 20
0.230771
 30
0
  0
VERTEX
  8
72_ARTEK_AKFURNITURE_D2_CH_FRA
 10
0.279809
 20
0.230828
 30
0
  0
VERTEX
  8
72_ARTEK_AKFURNITURE_D2_CH_FRA
 10
0.304278
 20
0.230127
 30
0
  0
VERTEX
  8
72_ARTEK_AKFURNITURE_D2_CH_FRA
 10
0.323333
 20
0.229268
 30
0
  0
VERTEX
  8
72_ARTEK_AKFURNITURE_D2_CH_FRA
 10
0.347974
 20
0.228178
 30
0
  0
VERTEX
  8
72_ARTEK_AKFURNITURE_D2_CH_FRA
 10
0.372489
 20
0.226371
 30
0
  0
VERTEX
  8
72_ARTEK_AKFURNITURE_D2_CH_FRA
 10
0.391559
 20
0.224855
 30
0
  0
VERTEX
  8
72_ARTEK_AKFURNITURE_D2_CH_FRA
 10
0.416022
 20
0.222683
 30
0
  0
VERTEX
  8
72_ARTEK_AKFURNITURE_D2_CH_FRA
 10
0.440568
 20
0.219793
 30
0
  0
VERTEX
  8
72_ARTEK_AKFURNITURE_D2_CH_FRA
 10
0.461513
 20
0.217368
 30
0
  0
VERTEX
  8
72_ARTEK_AKFURNITURE_D2_CH_FRA
 10
0.461513
 20
0.224017
 30
0
  0
VERTEX
  8
72_ARTEK_AKFURNITURE_D2_CH_FRA
 10
0.461513
 20
0.224612
 30
0
  0
VERTEX
  8
72_ARTEK_AKFURNITURE_D2_CH_FRA
 10
0.440593
 20
0.227037
 30
0
  0
VERTEX
  8
72_ARTEK_AKFURNITURE_D2_CH_FRA
 10
0.41604
 20
0.229928
 30
0
  0
VERTEX
  8
72_ARTEK_AKFURNITURE_D2_CH_FRA
 10
0.391564
 20
0.232101
 30
0
  0
VERTEX
  8
72_ARTEK_AKFURNITURE_D2_CH_FRA
 10
0.372493
 20
0.233618
 30
0
  0
VERTEX
  8
72_ARTEK_AKFURNITURE_D2_CH_FRA
 10
0.347991
 20
0.235424
 30
0
  0
VERTEX
  8
72_ARTEK_AKFURNITURE_D2_CH_FRA
 10
0.323357
 20
0.236514
 30
0
  0
VERTEX
  8
72_ARTEK_AKFURNITURE_D2_CH_FRA
 10
0.304292
 20
0.237374
 30
0
  0
VERTEX
  8
72_ARTEK_AKFURNITURE_D2_CH_FRA
 10
0.279805
 20
0.238075
 30
0
  0
VERTEX
  8
72_ARTEK_AKFURNITURE_D2_CH_FRA
 10
0.2455
 20
0.238018
 30
0
  0
VERTEX
  8
72_ARTEK_AKFURNITURE_D2_CH_FRA
 10
0.211195
 20
0.238075
 30
0
  0
VERTEX
  8
72_ARTEK_AKFURNITURE_D2_CH_FRA
 10
0.186708
 20
0.237374
 30
0
  0
VERTEX
  8
72_ARTEK_AKFURNITURE_D2_CH_FRA
 10
0.167643
 20
0.236514
 30
0
  0
VERTEX
  8
72_ARTEK_AKFURNITURE_D2_CH_FRA
 10
0.143009
 20
0.235424
 30
0
  0
VERTEX
  8
72_ARTEK_AKFURNITURE_D2_CH_FRA
 10
0.118507
 20
0.233618
 30
0
  0
VERTEX
  8
72_ARTEK_AKFURNITURE_D2_CH_FRA
 10
0.099436
 20
0.232101
 30
0
  0
VERTEX
  8
72_ARTEK_AKFURNITURE_D2_CH_FRA
 10
0.0749595
 20
0.229928
 30
0
  0
VERTEX
  8
72_ARTEK_AKFURNITURE_D2_CH_FRA
 10
0.0504073
 20
0.227037
 30
0
  0
VERTEX
  8
72_ARTEK_AKFURNITURE_D2_CH_FRA
 10
0.0294875
 20
0.224612
 30
0
  0
VERTEX
  8
72_ARTEK_AKFURNITURE_D2_CH_FRA
 10
0.0294874
 20
0.224017
 30
0
  0
VERTEX
  8
72_ARTEK_AKFURNITURE_D2_CH_FRA
 10
0.029487
 20
0.217368
 30
0
  0
VERTEX
  8
72_ARTEK_AKFURNITURE_D2_CH_FRA
 10
0.0504324
 20
0.219793
 30
0
  0
VERTEX
  8
72_ARTEK_AKFURNITURE_D2_CH_FRA
 10
0.0749779
 20
0.222683
 30
0
  0
VERTEX
  8
72_ARTEK_AKFURNITURE_D2_CH_FRA
 10
0.0994411
 20
0.224855
 30
0
  0
VERTEX
  8
72_ARTEK_AKFURNITURE_D2_CH_FRA
 10
0.118511
 20
0.226371
 30
0
  0
VERTEX
  8
72_ARTEK_AKFURNITURE_D2_CH_FRA
 10
0.143026
 20
0.228178
 30
0
  0
VERTEX
  8
72_ARTEK_AKFURNITURE_D2_CH_FRA
 10
0.167667
 20
0.229268
 30
0
  0
VERTEX
  8
72_ARTEK_AKFURNITURE_D2_CH_FRA
 10
0.186722
 20
0.230127
 30
0
  0
VERTEX
  8
72_ARTEK_AKFURNITURE_D2_CH_FRA
 10
0.211191
 20
0.230828
 30
0
  0
VERTEX
  8
72_ARTEK_AKFURNITURE_D2_CH_FRA
 10
0.2455
 20
0.230771
 30
0
  0
SEQEND
  0
POLYLINE
  8
72_ARTEK_AKFURNITURE_D2_CH_FRA
 66
     1
 70
     0
 10
0.0
 20
0.0
 30
0.0
  0
VERTEX
  8
72_ARTEK_AKFURNITURE_D2_CH_FRA
 10
0.234087
 20
0.166099
 30
0
  0
VERTEX
  8
72_ARTEK_AKFURNITURE_D2_CH_FRA
 10
0.256913
 20
0.166099
 30
0
  0
VERTEX
  8
72_ARTEK_AKFURNITURE_D2_CH_FRA
 10
0.28192
 20
0.166075
 30
0
  0
VERTEX
  8
72_ARTEK_AKFURNITURE_D2_CH_FRA
 10
0.306487
 20
0.165352
 30
0
  0
VERTEX
  8
72_ARTEK_AKFURNITURE_D2_CH_FRA
 10
0.324952
 20
0.164507
 30
0
  0
VERTEX
  8
72_ARTEK_AKFURNITURE_D2_CH_FRA
 10
0.349552
 20
0.16337
 30
0
  0
VERTEX
  8
72_ARTEK_AKFURNITURE_D2_CH_FRA
 10
0.374084
 20
0.161552
 30
0
  0
VERTEX
  8
72_ARTEK_AKFURNITURE_D2_CH_FRA
 10
0.393353
 20
0.160003
 30
0
  0
VERTEX
  8
72_ARTEK_AKFURNITURE_D2_CH_FRA
 10
0.41778
 20
0.157796
 30
0
  0
VERTEX
  8
72_ARTEK_AKFURNITURE_D2_CH_FRA
 10
0.442376
 20
0.154888
 30
0
  0
VERTEX
  8
72_ARTEK_AKFURNITURE_D2_CH_FRA
 10
0.461517
 20
0.152673
 30
0
  0
VERTEX
  8
72_ARTEK_AKFURNITURE_D2_CH_FRA
 10
0.461516
 20
0.178855
 30
0
  0
VERTEX
  8
72_ARTEK_AKFURNITURE_D2_CH_FRA
 10
0.444754
 20
0.180798
 30
0
  0
VERTEX
  8
72_ARTEK_AKFURNITURE_D2_CH_FRA
 10
0.419887
 20
0.183737
 30
0
  0
VERTEX
  8
72_ARTEK_AKFURNITURE_D2_CH_FRA
 10
0.395028
 20
0.185983
 30
0
  0
VERTEX
  8
72_ARTEK_AKFURNITURE_D2_CH_FRA
 10
0.375594
 20
0.187545
 30
0
  0
VERTEX
  8
72_ARTEK_AKFURNITURE_D2_CH_FRA
 10
0.35069
 20
0.18939
 30
0
  0
VERTEX
  8
72_ARTEK_AKFURNITURE_D2_CH_FRA
 10
0.325741
 20
0.190543
 30
0
  0
VERTEX
  8
72_ARTEK_AKFURNITURE_D2_CH_FRA
 10
0.307127
 20
0.191395
 30
0
  0
VERTEX
  8
72_ARTEK_AKFURNITURE_D2_CH_FRA
 10
0.282089
 20
0.192131
 30
0
  0
VERTEX
  8
72_ARTEK_AKFURNITURE_D2_CH_FRA
 10
0.2455
 20
0.192168
 30
0
  0
VERTEX
  8
72_ARTEK_AKFURNITURE_D2_CH_FRA
 10
0.208911
 20
0.192131
 30
0
  0
VERTEX
  8
72_ARTEK_AKFURNITURE_D2_CH_FRA
 10
0.183873
 20
0.191395
 30
0
  0
VERTEX
  8
72_ARTEK_AKFURNITURE_D2_CH_FRA
 10
0.165259
 20
0.190543
 30
0
  0
VERTEX
  8
72_ARTEK_AKFURNITURE_D2_CH_FRA
 10
0.14031
 20
0.18939
 30
0
  0
VERTEX
  8
72_ARTEK_AKFURNITURE_D2_CH_FRA
 10
0.115406
 20
0.187545
 30
0
  0
VERTEX
  8
72_ARTEK_AKFURNITURE_D2_CH_FRA
 10
0.0959723
 20
0.185983
 30
0
  0
VERTEX
  8
72_ARTEK_AKFURNITURE_D2_CH_FRA
 10
0.0711132
 20
0.183737
 30
0
  0
VERTEX
  8
72_ARTEK_AKFURNITURE_D2_CH_FRA
 10
0.0462458
 20
0.180798
 30
0
  0
VERTEX
  8
72_ARTEK_AKFURNITURE_D2_CH_FRA
 10
0.0294845
 20
0.178855
 30
0
  0
VERTEX
  8
72_ARTEK_AKFURNITURE_D2_CH_FRA
 10
0.0294827
 20
0.152673
 30
0
  0
VERTEX
  8
72_ARTEK_AKFURNITURE_D2_CH_FRA
 10
0.0486238
 20
0.154888
 30
0
  0
VERTEX
  8
72_ARTEK_AKFURNITURE_D2_CH_FRA
 10
0.0732196
 20
0.157796
 30
0
  0
VERTEX
  8
72_ARTEK_AKFURNITURE_D2_CH_FRA
 10
0.097647
 20
0.160003
 30
0
  0
VERTEX
  8
72_ARTEK_AKFURNITURE_D2_CH_FRA
 10
0.116916
 20
0.161552
 30
0
  0
VERTEX
  8
72_ARTEK_AKFURNITURE_D2_CH_FRA
 10
0.141448
 20
0.16337
 30
0
  0
VERTEX
  8
72_ARTEK_AKFURNITURE_D2_CH_FRA
 10
0.166048
 20
0.164507
 30
0
  0
VERTEX
  8
72_ARTEK_AKFURNITURE_D2_CH_FRA
 10
0.184513
 20
0.165352
 30
0
  0
VERTEX
  8
72_ARTEK_AKFURNITURE_D2_CH_FRA
 10
0.20908
 20
0.166075
 30
0
  0
VERTEX
  8
72_ARTEK_AKFURNITURE_D2_CH_FRA
 10
0.234087
 20
0.166099
 30
0
  0
SEQEND
  0
POLYLINE
  8
72_ARTEK_AKFURNITURE_D2_CH_FRA
 66
     1
 70
     0
 10
0.0
 20
0.0
 30
0.0
  0
VERTEX
  8
72_ARTEK_AKFURNITURE_D2_CH_FRA
 10
0.2455
 20
0.158862
 30
0
  0
VERTEX
  8
72_ARTEK_AKFURNITURE_D2_CH_FRA
 10
0.281922
 20
0.158828
 30
0
  0
VERTEX
  8
72_ARTEK_AKFURNITURE_D2_CH_FRA
 10
0.306473
 20
0.158106
 30
0
  0
VERTEX
  8
72_ARTEK_AKFURNITURE_D2_CH_FRA
 10
0.324928
 20
0.157261
 30
0
  0
VERTEX
  8
72_ARTEK_AKFURNITURE_D2_CH_FRA
 10
0.349536
 20
0.156124
 30
0
  0
VERTEX
  8
72_ARTEK_AKFURNITURE_D2_CH_FRA
 10
0.37408
 20
0.154306
 30
0
  0
VERTEX
  8
72_ARTEK_AKFURNITURE_D2_CH_FRA
 10
0.393348
 20
0.152756
 30
0
  0
VERTEX
  8
72_ARTEK_AKFURNITURE_D2_CH_FRA
 10
0.417762
 20
0.150551
 30
0
  0
VERTEX
  8
72_ARTEK_AKFURNITURE_D2_CH_FRA
 10
0.442351
 20
0.147644
 30
0
  0
VERTEX
  8
72_ARTEK_AKFURNITURE_D2_CH_FRA
 10
0.461518
 20
0.14543
 30
0
  0
VERTEX
  8
72_ARTEK_AKFURNITURE_D2_CH_FRA
 10
0.461517
 20
0.152673
 30
0
  0
VERTEX
  8
72_ARTEK_AKFURNITURE_D2_CH_FRA
 10
0.442376
 20
0.154888
 30
0
  0
VERTEX
  8
72_ARTEK_AKFURNITURE_D2_CH_FRA
 10
0.41778
 20
0.157796
 30
0
  0
VERTEX
  8
72_ARTEK_AKFURNITURE_D2_CH_FRA
 10
0.393353
 20
0.160003
 30
0
  0
VERTEX
  8
72_ARTEK_AKFURNITURE_D2_CH_FRA
 10
0.374084
 20
0.161552
 30
0
  0
VERTEX
  8
72_ARTEK_AKFURNITURE_D2_CH_FRA
 10
0.349552
 20
0.16337
 30
0
  0
VERTEX
  8
72_ARTEK_AKFURNITURE_D2_CH_FRA
 10
0.324952
 20
0.164507
 30
0
  0
VERTEX
  8
72_ARTEK_AKFURNITURE_D2_CH_FRA
 10
0.306487
 20
0.165352
 30
0
  0
VERTEX
  8
72_ARTEK_AKFURNITURE_D2_CH_FRA
 10
0.28192
 20
0.166075
 30
0
  0
VERTEX
  8
72_ARTEK_AKFURNITURE_D2_CH_FRA
 10
0.256913
 20
0.166099
 30
0
  0
VERTEX
  8
72_ARTEK_AKFURNITURE_D2_CH_FRA
 10
0.234087
 20
0.166099
 30
0
  0
VERTEX
  8
72_ARTEK_AKFURNITURE_D2_CH_FRA
 10
0.20908
 20
0.166075
 30
0
  0
VERTEX
  8
72_ARTEK_AKFURNITURE_D2_CH_FRA
 10
0.184513
 20
0.165352
 30
0
  0
VERTEX
  8
72_ARTEK_AKFURNITURE_D2_CH_FRA
 10
0.166048
 20
0.164507
 30
0
  0
VERTEX
  8
72_ARTEK_AKFURNITURE_D2_CH_FRA
 10
0.141448
 20
0.16337
 30
0
  0
VERTEX
  8
72_ARTEK_AKFURNITURE_D2_CH_FRA
 10
0.116916
 20
0.161552
 30
0
  0
VERTEX
  8
72_ARTEK_AKFURNITURE_D2_CH_FRA
 10
0.097647
 20
0.160003
 30
0
  0
VERTEX
  8
72_ARTEK_AKFURNITURE_D2_CH_FRA
 10
0.0732196
 20
0.157796
 30
0
  0
VERTEX
  8
72_ARTEK_AKFURNITURE_D2_CH_FRA
 10
0.0486238
 20
0.154888
 30
0
  0
VERTEX
  8
72_ARTEK_AKFURNITURE_D2_CH_FRA
 10
0.0294827
 20
0.152673
 30
0
  0
VERTEX
  8
72_ARTEK_AKFURNITURE_D2_CH_FRA
 10
0.0294823
 20
0.14543
 30
0
  0
VERTEX
  8
72_ARTEK_AKFURNITURE_D2_CH_FRA
 10
0.0486489
 20
0.147644
 30
0
  0
VERTEX
  8
72_ARTEK_AKFURNITURE_D2_CH_FRA
 10
0.0732384
 20
0.150551
 30
0
  0
VERTEX
  8
72_ARTEK_AKFURNITURE_D2_CH_FRA
 10
0.097652
 20
0.152756
 30
0
  0
VERTEX
  8
72_ARTEK_AKFURNITURE_D2_CH_FRA
 10
0.11692
 20
0.154306
 30
0
  0
VERTEX
  8
72_ARTEK_AKFURNITURE_D2_CH_FRA
 10
0.141464
 20
0.156124
 30
0
  0
VERTEX
  8
72_ARTEK_AKFURNITURE_D2_CH_FRA
 10
0.166072
 20
0.157261
 30
0
  0
VERTEX
  8
72_ARTEK_AKFURNITURE_D2_CH_FRA
 10
0.184527
 20
0.158106
 30
0
  0
VERTEX
  8
72_ARTEK_AKFURNITURE_D2_CH_FRA
 10
0.209078
 20
0.158828
 30
0
  0
VERTEX
  8
72_ARTEK_AKFURNITURE_D2_CH_FRA
 10
0.2455
 20
0.158862
 30
0
  0
SEQEND
  0
POLYLINE
  8
72_ARTEK_AKFURNITURE_D2_CH_FRA
 66
     1
 70
     0
 10
0.0
 20
0.0
 30
0.0
  0
VERTEX
  8
72_ARTEK_AKFURNITURE_D2_CH_FRA
 10
0.0294807
 20
0.12135
 30
0
  0
VERTEX
  8
72_ARTEK_AKFURNITURE_D2_CH_FRA
 10
0.461519
 20
0.12135
 30
0
  0
VERTEX
  8
72_ARTEK_AKFURNITURE_D2_CH_FRA
 10
0.461518
 20
0.14543
 30
0
  0
VERTEX
  8
72_ARTEK_AKFURNITURE_D2_CH_FRA
 10
0.442351
 20
0.147644
 30
0
  0
VERTEX
  8
72_ARTEK_AKFURNITURE_D2_CH_FRA
 10
0.417762
 20
0.150551
 30
0
  0
VERTEX
  8
72_ARTEK_AKFURNITURE_D2_CH_FRA
 10
0.393348
 20
0.152756
 30
0
  0
VERTEX
  8
72_ARTEK_AKFURNITURE_D2_CH_FRA
 10
0.37408
 20
0.154306
 30
0
  0
VERTEX
  8
72_ARTEK_AKFURNITURE_D2_CH_FRA
 10
0.349536
 20
0.156124
 30
0
  0
VERTEX
  8
72_ARTEK_AKFURNITURE_D2_CH_FRA
 10
0.324928
 20
0.157261
 30
0
  0
VERTEX
  8
72_ARTEK_AKFURNITURE_D2_CH_FRA
 10
0.306473
 20
0.158106
 30
0
  0
VERTEX
  8
72_ARTEK_AKFURNITURE_D2_CH_FRA
 10
0.281922
 20
0.158828
 30
0
  0
VERTEX
  8
72_ARTEK_AKFURNITURE_D2_CH_FRA
 10
0.2455
 20
0.158862
 30
0
  0
VERTEX
  8
72_ARTEK_AKFURNITURE_D2_CH_FRA
 10
0.209078
 20
0.158828
 30
0
  0
VERTEX
  8
72_ARTEK_AKFURNITURE_D2_CH_FRA
 10
0.184527
 20
0.158106
 30
0
  0
VERTEX
  8
72_ARTEK_AKFURNITURE_D2_CH_FRA
 10
0.166072
 20
0.157261
 30
0
  0
VERTEX
  8
72_ARTEK_AKFURNITURE_D2_CH_FRA
 10
0.141464
 20
0.156124
 30
0
  0
VERTEX
  8
72_ARTEK_AKFURNITURE_D2_CH_FRA
 10
0.11692
 20
0.154306
 30
0
  0
VERTEX
  8
72_ARTEK_AKFURNITURE_D2_CH_FRA
 10
0.097652
 20
0.152756
 30
0
  0
VERTEX
  8
72_ARTEK_AKFURNITURE_D2_CH_FRA
 10
0.0732384
 20
0.150551
 30
0
  0
VERTEX
  8
72_ARTEK_AKFURNITURE_D2_CH_FRA
 10
0.0486489
 20
0.147644
 30
0
  0
VERTEX
  8
72_ARTEK_AKFURNITURE_D2_CH_FRA
 10
0.0294823
 20
0.14543
 30
0
  0
VERTEX
  8
72_ARTEK_AKFURNITURE_D2_CH_FRA
 10
0.0294807
 20
0.12135
 30
0
  0
SEQEND
  0
POLYLINE
  8
72_ARTEK_AKFURNITURE_D2_CH_FRA
 66
     1
 70
     0
 10
0.0
 20
0.0
 30
0.0
  0
VERTEX
  8
72_ARTEK_AKFURNITURE_D2_CH_FRA
 10
0.00457845
 20
0.117386
 30
0
  0
VERTEX
  8
72_ARTEK_AKFURNITURE_D2_CH_FRA
 10
0.0264215
 20
0.117386
 30
0
  0
VERTEX
  8
72_ARTEK_AKFURNITURE_D2_CH_FRA
 10
0.0264215
 20
0.117386
 30
0
  0
VERTEX
  8
72_ARTEK_AKFURNITURE_D2_CH_FRA
 10
0.027032
 20
0.117475
 30
0
  0
VERTEX
  8
72_ARTEK_AKFURNITURE_D2_CH_FRA
 10
0.0276142
 20
0.117679
 30
0
  0
VERTEX
  8
72_ARTEK_AKFURNITURE_D2_CH_FRA
 10
0.0281468
 20
0.11799
 30
0
  0
VERTEX
  8
72_ARTEK_AKFURNITURE_D2_CH_FRA
 10
0.0286102
 20
0.118397
 30
0
  0
VERTEX
  8
72_ARTEK_AKFURNITURE_D2_CH_FRA
 10
0.0289873
 20
0.118885
 30
0
  0
VERTEX
  8
72_ARTEK_AKFURNITURE_D2_CH_FRA
 10
0.0292642
 20
0.119436
 30
0
  0
VERTEX
  8
72_ARTEK_AKFURNITURE_D2_CH_FRA
 10
0.0294307
 20
0.12003
 30
0
  0
VERTEX
  8
72_ARTEK_AKFURNITURE_D2_CH_FRA
 10
0.0294807
 20
0.120645
 30
0
  0
VERTEX
  8
72_ARTEK_AKFURNITURE_D2_CH_FRA
 10
0.0294807
 20
0.12135
 30
0
  0
VERTEX
  8
72_ARTEK_AKFURNITURE_D2_CH_FRA
 10
0.0294875
 20
0.224017
 30
0
  0
VERTEX
  8
72_ARTEK_AKFURNITURE_D2_CH_FRA
 10
0.0294875
 20
0.224017
 30
0
  0
VERTEX
  8
72_ARTEK_AKFURNITURE_D2_CH_FRA
 10
0.029418
 20
0.223492
 30
0
  0
VERTEX
  8
72_ARTEK_AKFURNITURE_D2_CH_FRA
 10
0.0292643
 20
0.222984
 30
0
  0
VERTEX
  8
72_ARTEK_AKFURNITURE_D2_CH_FRA
 10
0.0290306
 20
0.222508
 30
0
  0
VERTEX
  8
72_ARTEK_AKFURNITURE_D2_CH_FRA
 10
0.0287229
 20
0.222075
 30
0
  0
VERTEX
  8
72_ARTEK_AKFURNITURE_D2_CH_FRA
 10
0.0283493
 20
0.221699
 30
0
  0
VERTEX
  8
72_ARTEK_AKFURNITURE_D2_CH_FRA
 10
0.0283493
 20
0.221699
 30
0
  0
VERTEX
  8
72_ARTEK_AKFURNITURE_D2_CH_FRA
 10
0.0277699
 20
0.221359
 30
0
  0
VERTEX
  8
72_ARTEK_AKFURNITURE_D2_CH_FRA
 10
0.0271428
 20
0.221117
 30
0
  0
VERTEX
  8
72_ARTEK_AKFURNITURE_D2_CH_FRA
 10
0.0264848
 20
0.220981
 30
0
  0
VERTEX
  8
72_ARTEK_AKFURNITURE_D2_CH_FRA
 10
0.00451515
 20
0.220981
 30
0
  0
VERTEX
  8
72_ARTEK_AKFURNITURE_D2_CH_FRA
 10
0.00451515
 20
0.220981
 30
0
  0
VERTEX
  8
72_ARTEK_AKFURNITURE_D2_CH_FRA
 10
0.00385712
 20
0.221117
 30
0
  0
VERTEX
  8
72_ARTEK_AKFURNITURE_D2_CH_FRA
 10
0.00323004
 20
0.221359
 30
0
  0
VERTEX
  8
72_ARTEK_AKFURNITURE_D2_CH_FRA
 10
0.00265066
 20
0.221699
 30
0
  0
VERTEX
  8
72_ARTEK_AKFURNITURE_D2_CH_FRA
 10
0.00265066
 20
0.221699
 30
0
  0
VERTEX
  8
72_ARTEK_AKFURNITURE_D2_CH_FRA
 10
0.00227709
 20
0.222075
 30
0
  0
VERTEX
  8
72_ARTEK_AKFURNITURE_D2_CH_FRA
 10
0.00196937
 20
0.222508
 30
0
  0
VERTEX
  8
72_ARTEK_AKFURNITURE_D2_CH_FRA
 10
0.00173561
 20
0.222984
 30
0
  0
VERTEX
  8
72_ARTEK_AKFURNITURE_D2_CH_FRA
 10
0.00158197
 20
0.223492
 30
0
  0
VERTEX
  8
72_ARTEK_AKFURNITURE_D2_CH_FRA
 10
0.00151251
 20
0.224017
 30
0
  0
VERTEX
  8
72_ARTEK_AKFURNITURE_D2_CH_FRA
 10
0.00151928
 20
0.120645
 30
0
  0
VERTEX
  8
72_ARTEK_AKFURNITURE_D2_CH_FRA
 10
0.00151928
 20
0.120645
 30
0
  0
VERTEX
  8
72_ARTEK_AKFURNITURE_D2_CH_FRA
 10
0.00156928
 20
0.12003
 30
0
  0
VERTEX
  8
72_ARTEK_AKFURNITURE_D2_CH_FRA
 10
0.00173579
 20
0.119436
 30
0
  0
VERTEX
  8
72_ARTEK_AKFURNITURE_D2_CH_FRA
 10
0.00201268
 20
0.118885
 30
0
  0
VERTEX
  8
72_ARTEK_AKFURNITURE_D2_CH_FRA
 10
0.00238975
 20
0.118397
 30
0
  0
VERTEX
  8
72_ARTEK_AKFURNITURE_D2_CH_FRA
 10
0.00285313
 20
0.11799
 30
0
  0
VERTEX
  8
72_ARTEK_AKFURNITURE_D2_CH_FRA
 10
0.00338574
 20
0.117679
 30
0
  0
VERTEX
  8
72_ARTEK_AKFURNITURE_D2_CH_FRA
 10
0.003968
 20
0.117475
 30
0
  0
VERTEX
  8
72_ARTEK_AKFURNITURE_D2_CH_FRA
 10
0.00457845
 20
0.117386
 30
0
  0
SEQEND
  0
POLYLINE
  8
72_ARTEK_AKFURNITURE_D2_CH_FRA
 66
     1
 70
     0
 10
0.0
 20
0.0
 30
0.0
  0
VERTEX
  8
72_ARTEK_AKFURNITURE_D2_CH_FRA
 10
0.00151252
 20
0.250807
 30
0
  0
VERTEX
  8
72_ARTEK_AKFURNITURE_D2_CH_FRA
 10
0.00151162
 20
0.237412
 30
0
  0
VERTEX
  8
72_ARTEK_AKFURNITURE_D2_CH_FRA
 10
0.00151252
 20
0.224017
 30
0
  0
VERTEX
  8
72_ARTEK_AKFURNITURE_D2_CH_FRA
 10
0.00151252
 20
0.224017
 30
0
  0
VERTEX
  8
72_ARTEK_AKFURNITURE_D2_CH_FRA
 10
0.00158198
 20
0.223492
 30
0
  0
VERTEX
  8
72_ARTEK_AKFURNITURE_D2_CH_FRA
 10
0.00173561
 20
0.222984
 30
0
  0
VERTEX
  8
72_ARTEK_AKFURNITURE_D2_CH_FRA
 10
0.00196937
 20
0.222508
 30
0
  0
VERTEX
  8
72_ARTEK_AKFURNITURE_D2_CH_FRA
 10
0.00227709
 20
0.222075
 30
0
  0
VERTEX
  8
72_ARTEK_AKFURNITURE_D2_CH_FRA
 10
0.00265066
 20
0.221699
 30
0
  0
VERTEX
  8
72_ARTEK_AKFURNITURE_D2_CH_FRA
 10
0.00265066
 20
0.221699
 30
0
  0
VERTEX
  8
72_ARTEK_AKFURNITURE_D2_CH_FRA
 10
0.00323004
 20
0.221359
 30
0
  0
VERTEX
  8
72_ARTEK_AKFURNITURE_D2_CH_FRA
 10
0.00385712
 20
0.221117
 30
0
  0
VERTEX
  8
72_ARTEK_AKFURNITURE_D2_CH_FRA
 10
0.00451515
 20
0.220981
 30
0
  0
VERTEX
  8
72_ARTEK_AKFURNITURE_D2_CH_FRA
 10
0.0264848
 20
0.220981
 30
0
  0
VERTEX
  8
72_ARTEK_AKFURNITURE_D2_CH_FRA
 10
0.0264848
 20
0.220981
 30
0
  0
VERTEX
  8
72_ARTEK_AKFURNITURE_D2_CH_FRA
 10
0.0271428
 20
0.221117
 30
0
  0
VERTEX
  8
72_ARTEK_AKFURNITURE_D2_CH_FRA
 10
0.0277699
 20
0.221359
 30
0
  0
VERTEX
  8
72_ARTEK_AKFURNITURE_D2_CH_FRA
 10
0.0283493
 20
0.221699
 30
0
  0
VERTEX
  8
72_ARTEK_AKFURNITURE_D2_CH_FRA
 10
0.0283493
 20
0.221699
 30
0
  0
VERTEX
  8
72_ARTEK_AKFURNITURE_D2_CH_FRA
 10
0.0287229
 20
0.222075
 30
0
  0
VERTEX
  8
72_ARTEK_AKFURNITURE_D2_CH_FRA
 10
0.0290306
 20
0.222508
 30
0
  0
VERTEX
  8
72_ARTEK_AKFURNITURE_D2_CH_FRA
 10
0.0292643
 20
0.222984
 30
0
  0
VERTEX
  8
72_ARTEK_AKFURNITURE_D2_CH_FRA
 10
0.029418
 20
0.223492
 30
0
  0
VERTEX
  8
72_ARTEK_AKFURNITURE_D2_CH_FRA
 10
0.0294874
 20
0.224017
 30
0
  0
VERTEX
  8
72_ARTEK_AKFURNITURE_D2_CH_FRA
 10
0.0294884
 20
0.237412
 30
0
  0
VERTEX
  8
72_ARTEK_AKFURNITURE_D2_CH_FRA
 10
0.0294874
 20
0.250807
 30
0
  0
VERTEX
  8
72_ARTEK_AKFURNITURE_D2_CH_FRA
 10
0.0294874
 20
0.250807
 30
0
  0
VERTEX
  8
72_ARTEK_AKFURNITURE_D2_CH_FRA
 10
0.029418
 20
0.251333
 30
0
  0
VERTEX
  8
72_ARTEK_AKFURNITURE_D2_CH_FRA
 10
0.0292643
 20
0.251841
 30
0
  0
VERTEX
  8
72_ARTEK_AKFURNITURE_D2_CH_FRA
 10
0.0290306
 20
0.252317
 30
0
  0
VERTEX
  8
72_ARTEK_AKFURNITURE_D2_CH_FRA
 10
0.0287229
 20
0.252749
 30
0
  0
VERTEX
  8
72_ARTEK_AKFURNITURE_D2_CH_FRA
 10
0.0283493
 20
0.253126
 30
0
  0
VERTEX
  8
72_ARTEK_AKFURNITURE_D2_CH_FRA
 10
0.0283493
 20
0.253126
 30
0
  0
VERTEX
  8
72_ARTEK_AKFURNITURE_D2_CH_FRA
 10
0.0277699
 20
0.253466
 30
0
  0
VERTEX
  8
72_ARTEK_AKFURNITURE_D2_CH_FRA
 10
0.0271428
 20
0.253707
 30
0
  0
VERTEX
  8
72_ARTEK_AKFURNITURE_D2_CH_FRA
 10
0.0264848
 20
0.253843
 30
0
  0
VERTEX
  8
72_ARTEK_AKFURNITURE_D2_CH_FRA
 10
0.00451515
 20
0.253843
 30
0
  0
VERTEX
  8
72_ARTEK_AKFURNITURE_D2_CH_FRA
 10
0.00451515
 20
0.253843
 30
0
  0
VERTEX
  8
72_ARTEK_AKFURNITURE_D2_CH_FRA
 10
0.00385712
 20
0.253707
 30
0
  0
VERTEX
  8
72_ARTEK_AKFURNITURE_D2_CH_FRA
 10
0.00323004
 20
0.253466
 30
0
  0
VERTEX
  8
72_ARTEK_AKFURNITURE_D2_CH_FRA
 10
0.00265066
 20
0.253126
 30
0
  0
VERTEX
  8
72_ARTEK_AKFURNITURE_D2_CH_FRA
 10
0.00265066
 20
0.253126
 30
0
  0
VERTEX
  8
72_ARTEK_AKFURNITURE_D2_CH_FRA
 10
0.00227709
 20
0.252749
 30
0
  0
VERTEX
  8
72_ARTEK_AKFURNITURE_D2_CH_FRA
 10
0.00196937
 20
0.252317
 30
0
  0
VERTEX
  8
72_ARTEK_AKFURNITURE_D2_CH_FRA
 10
0.00173561
 20
0.251841
 30
0
  0
VERTEX
  8
72_ARTEK_AKFURNITURE_D2_CH_FRA
 10
0.00158198
 20
0.251333
 30
0
  0
VERTEX
  8
72_ARTEK_AKFURNITURE_D2_CH_FRA
 10
0.00151252
 20
0.250807
 30
0
  0
SEQEND
  0
POLYLINE
  8
72_ARTEK_AKFURNITURE_D2_CH_FRA
 66
     1
 70
     0
 10
0.0
 20
0.0
 30
0.0
  0
VERTEX
  8
72_ARTEK_AKFURNITURE_D2_CH_FRA
 10
0.489487
 20
0.224017
 30
0
  0
VERTEX
  8
72_ARTEK_AKFURNITURE_D2_CH_FRA
 10
0.489488
 20
0.237412
 30
0
  0
VERTEX
  8
72_ARTEK_AKFURNITURE_D2_CH_FRA
 10
0.489487
 20
0.250807
 30
0
  0
VERTEX
  8
72_ARTEK_AKFURNITURE_D2_CH_FRA
 10
0.489487
 20
0.250807
 30
0
  0
VERTEX
  8
72_ARTEK_AKFURNITURE_D2_CH_FRA
 10
0.489418
 20
0.251333
 30
0
  0
VERTEX
  8
72_ARTEK_AKFURNITURE_D2_CH_FRA
 10
0.489264
 20
0.251841
 30
0
  0
VERTEX
  8
72_ARTEK_AKFURNITURE_D2_CH_FRA
 10
0.489031
 20
0.252317
 30
0
  0
VERTEX
  8
72_ARTEK_AKFURNITURE_D2_CH_FRA
 10
0.488723
 20
0.252749
 30
0
  0
VERTEX
  8
72_ARTEK_AKFURNITURE_D2_CH_FRA
 10
0.488349
 20
0.253126
 30
0
  0
VERTEX
  8
72_ARTEK_AKFURNITURE_D2_CH_FRA
 10
0.488349
 20
0.253126
 30
0
  0
VERTEX
  8
72_ARTEK_AKFURNITURE_D2_CH_FRA
 10
0.48777
 20
0.253466
 30
0
  0
VERTEX
  8
72_ARTEK_AKFURNITURE_D2_CH_FRA
 10
0.487143
 20
0.253707
 30
0
  0
VERTEX
  8
72_ARTEK_AKFURNITURE_D2_CH_FRA
 10
0.486485
 20
0.253843
 30
0
  0
VERTEX
  8
72_ARTEK_AKFURNITURE_D2_CH_FRA
 10
0.464515
 20
0.253843
 30
0
  0
VERTEX
  8
72_ARTEK_AKFURNITURE_D2_CH_FRA
 10
0.464515
 20
0.253843
 30
0
  0
VERTEX
  8
72_ARTEK_AKFURNITURE_D2_CH_FRA
 10
0.463857
 20
0.253707
 30
0
  0
VERTEX
  8
72_ARTEK_AKFURNITURE_D2_CH_FRA
 10
0.46323
 20
0.253466
 30
0
  0
VERTEX
  8
72_ARTEK_AKFURNITURE_D2_CH_FRA
 10
0.462651
 20
0.253126
 30
0
  0
VERTEX
  8
72_ARTEK_AKFURNITURE_D2_CH_FRA
 10
0.462651
 20
0.253126
 30
0
  0
VERTEX
  8
72_ARTEK_AKFURNITURE_D2_CH_FRA
 10
0.462277
 20
0.252749
 30
0
  0
VERTEX
  8
72_ARTEK_AKFURNITURE_D2_CH_FRA
 10
0.461969
 20
0.252317
 30
0
  0
VERTEX
  8
72_ARTEK_AKFURNITURE_D2_CH_FRA
 10
0.461736
 20
0.251841
 30
0
  0
VERTEX
  8
72_ARTEK_AKFURNITURE_D2_CH_FRA
 10
0.461582
 20
0.251333
 30
0
  0
VERTEX
  8
72_ARTEK_AKFURNITURE_D2_CH_FRA
 10
0.461513
 20
0.250807
 30
0
  0
VERTEX
  8
72_ARTEK_AKFURNITURE_D2_CH_FRA
 10
0.461512
 20
0.237412
 30
0
  0
VERTEX
  8
72_ARTEK_AKFURNITURE_D2_CH_FRA
 10
0.461513
 20
0.224017
 30
0
  0
VERTEX
  8
72_ARTEK_AKFURNITURE_D2_CH_FRA
 10
0.461513
 20
0.224017
 30
0
  0
VERTEX
  8
72_ARTEK_AKFURNITURE_D2_CH_FRA
 10
0.461582
 20
0.223492
 30
0
  0
VERTEX
  8
72_ARTEK_AKFURNITURE_D2_CH_FRA
 10
0.461736
 20
0.222984
 30
0
  0
VERTEX
  8
72_ARTEK_AKFURNITURE_D2_CH_FRA
 10
0.461969
 20
0.222508
 30
0
  0
VERTEX
  8
72_ARTEK_AKFURNITURE_D2_CH_FRA
 10
0.462277
 20
0.222075
 30
0
  0
VERTEX
  8
72_ARTEK_AKFURNITURE_D2_CH_FRA
 10
0.462651
 20
0.221699
 30
0
  0
VERTEX
  8
72_ARTEK_AKFURNITURE_D2_CH_FRA
 10
0.462651
 20
0.221699
 30
0
  0
VERTEX
  8
72_ARTEK_AKFURNITURE_D2_CH_FRA
 10
0.46323
 20
0.221359
 30
0
  0
VERTEX
  8
72_ARTEK_AKFURNITURE_D2_CH_FRA
 10
0.463857
 20
0.221117
 30
0
  0
VERTEX
  8
72_ARTEK_AKFURNITURE_D2_CH_FRA
 10
0.464515
 20
0.220981
 30
0
  0
VERTEX
  8
72_ARTEK_AKFURNITURE_D2_CH_FRA
 10
0.486485
 20
0.220981
 30
0
  0
VERTEX
  8
72_ARTEK_AKFURNITURE_D2_CH_FRA
 10
0.486485
 20
0.220981
 30
0
  0
VERTEX
  8
72_ARTEK_AKFURNITURE_D2_CH_FRA
 10
0.487143
 20
0.221117
 30
0
  0
VERTEX
  8
72_ARTEK_AKFURNITURE_D2_CH_FRA
 10
0.48777
 20
0.221359
 30
0
  0
VERTEX
  8
72_ARTEK_AKFURNITURE_D2_CH_FRA
 10
0.488349
 20
0.221699
 30
0
  0
VERTEX
  8
72_ARTEK_AKFURNITURE_D2_CH_FRA
 10
0.488349
 20
0.221699
 30
0
  0
VERTEX
  8
72_ARTEK_AKFURNITURE_D2_CH_FRA
 10
0.488723
 20
0.222075
 30
0
  0
VERTEX
  8
72_ARTEK_AKFURNITURE_D2_CH_FRA
 10
0.489031
 20
0.222508
 30
0
  0
VERTEX
  8
72_ARTEK_AKFURNITURE_D2_CH_FRA
 10
0.489264
 20
0.222984
 30
0
  0
VERTEX
  8
72_ARTEK_AKFURNITURE_D2_CH_FRA
 10
0.489418
 20
0.223492
 30
0
  0
VERTEX
  8
72_ARTEK_AKFURNITURE_D2_CH_FRA
 10
0.489487
 20
0.224017
 30
0
  0
SEQEND
  0
POLYLINE
  8
72_ARTEK_AKFURNITURE_D2_CH_FRA
 66
     1
 70
     0
 10
0.0
 20
0.0
 30
0.0
  0
VERTEX
  8
72_ARTEK_AKFURNITURE_D2_CH_FRA
 10
0.461519
 20
0.12135
 30
0
  0
VERTEX
  8
72_ARTEK_AKFURNITURE_D2_CH_FRA
 10
0.461519
 20
0.120645
 30
0
  0
VERTEX
  8
72_ARTEK_AKFURNITURE_D2_CH_FRA
 10
0.461519
 20
0.120645
 30
0
  0
VERTEX
  8
72_ARTEK_AKFURNITURE_D2_CH_FRA
 10
0.461569
 20
0.12003
 30
0
  0
VERTEX
  8
72_ARTEK_AKFURNITURE_D2_CH_FRA
 10
0.461736
 20
0.119436
 30
0
  0
VERTEX
  8
72_ARTEK_AKFURNITURE_D2_CH_FRA
 10
0.462013
 20
0.118885
 30
0
  0
VERTEX
  8
72_ARTEK_AKFURNITURE_D2_CH_FRA
 10
0.46239
 20
0.118397
 30
0
  0
VERTEX
  8
72_ARTEK_AKFURNITURE_D2_CH_FRA
 10
0.462853
 20
0.11799
 30
0
  0
VERTEX
  8
72_ARTEK_AKFURNITURE_D2_CH_FRA
 10
0.463386
 20
0.117679
 30
0
  0
VERTEX
  8
72_ARTEK_AKFURNITURE_D2_CH_FRA
 10
0.463968
 20
0.117475
 30
0
  0
VERTEX
  8
72_ARTEK_AKFURNITURE_D2_CH_FRA
 10
0.464579
 20
0.117386
 30
0
  0
VERTEX
  8
72_ARTEK_AKFURNITURE_D2_CH_FRA
 10
0.486422
 20
0.117386
 30
0
  0
VERTEX
  8
72_ARTEK_AKFURNITURE_D2_CH_FRA
 10
0.486422
 20
0.117386
 30
0
  0
VERTEX
  8
72_ARTEK_AKFURNITURE_D2_CH_FRA
 10
0.487032
 20
0.117475
 30
0
  0
VERTEX
  8
72_ARTEK_AKFURNITURE_D2_CH_FRA
 10
0.487614
 20
0.117679
 30
0
  0
VERTEX
  8
72_ARTEK_AKFURNITURE_D2_CH_FRA
 10
0.488147
 20
0.11799
 30
0
  0
VERTEX
  8
72_ARTEK_AKFURNITURE_D2_CH_FRA
 10
0.48861
 20
0.118397
 30
0
  0
VERTEX
  8
72_ARTEK_AKFURNITURE_D2_CH_FRA
 10
0.488987
 20
0.118885
 30
0
  0
VERTEX
  8
72_ARTEK_AKFURNITURE_D2_CH_FRA
 10
0.489264
 20
0.119436
 30
0
  0
VERTEX
  8
72_ARTEK_AKFURNITURE_D2_CH_FRA
 10
0.489431
 20
0.12003
 30
0
  0
VERTEX
  8
72_ARTEK_AKFURNITURE_D2_CH_FRA
 10
0.489481
 20
0.120645
 30
0
  0
VERTEX
  8
72_ARTEK_AKFURNITURE_D2_CH_FRA
 10
0.489487
 20
0.224017
 30
0
  0
VERTEX
  8
72_ARTEK_AKFURNITURE_D2_CH_FRA
 10
0.489487
 20
0.224017
 30
0
  0
VERTEX
  8
72_ARTEK_AKFURNITURE_D2_CH_FRA
 10
0.489418
 20
0.223492
 30
0
  0
VERTEX
  8
72_ARTEK_AKFURNITURE_D2_CH_FRA
 10
0.489264
 20
0.222984
 30
0
  0
VERTEX
  8
72_ARTEK_AKFURNITURE_D2_CH_FRA
 10
0.489031
 20
0.222508
 30
0
  0
VERTEX
  8
72_ARTEK_AKFURNITURE_D2_CH_FRA
 10
0.488723
 20
0.222075
 30
0
  0
VERTEX
  8
72_ARTEK_AKFURNITURE_D2_CH_FRA
 10
0.488349
 20
0.221699
 30
0
  0
VERTEX
  8
72_ARTEK_AKFURNITURE_D2_CH_FRA
 10
0.488349
 20
0.221699
 30
0
  0
VERTEX
  8
72_ARTEK_AKFURNITURE_D2_CH_FRA
 10
0.48777
 20
0.221359
 30
0
  0
VERTEX
  8
72_ARTEK_AKFURNITURE_D2_CH_FRA
 10
0.487143
 20
0.221117
 30
0
  0
VERTEX
  8
72_ARTEK_AKFURNITURE_D2_CH_FRA
 10
0.486485
 20
0.220981
 30
0
  0
VERTEX
  8
72_ARTEK_AKFURNITURE_D2_CH_FRA
 10
0.464515
 20
0.220981
 30
0
  0
VERTEX
  8
72_ARTEK_AKFURNITURE_D2_CH_FRA
 10
0.464515
 20
0.220981
 30
0
  0
VERTEX
  8
72_ARTEK_AKFURNITURE_D2_CH_FRA
 10
0.463857
 20
0.221117
 30
0
  0
VERTEX
  8
72_ARTEK_AKFURNITURE_D2_CH_FRA
 10
0.46323
 20
0.221359
 30
0
  0
VERTEX
  8
72_ARTEK_AKFURNITURE_D2_CH_FRA
 10
0.462651
 20
0.221699
 30
0
  0
VERTEX
  8
72_ARTEK_AKFURNITURE_D2_CH_FRA
 10
0.462651
 20
0.221699
 30
0
  0
VERTEX
  8
72_ARTEK_AKFURNITURE_D2_CH_FRA
 10
0.462277
 20
0.222075
 30
0
  0
VERTEX
  8
72_ARTEK_AKFURNITURE_D2_CH_FRA
 10
0.461969
 20
0.222508
 30
0
  0
VERTEX
  8
72_ARTEK_AKFURNITURE_D2_CH_FRA
 10
0.461736
 20
0.222984
 30
0
  0
VERTEX
  8
72_ARTEK_AKFURNITURE_D2_CH_FRA
 10
0.461582
 20
0.223492
 30
0
  0
VERTEX
  8
72_ARTEK_AKFURNITURE_D2_CH_FRA
 10
0.461513
 20
0.224017
 30
0
  0
VERTEX
  8
72_ARTEK_AKFURNITURE_D2_CH_FRA
 10
0.461519
 20
0.12135
 30
0
  0
SEQEND
  0
POLYLINE
  8
72_ARTEK_AKFURNITURE_D2_CH_FRA
 66
     1
 70
     0
 10
0.0
 20
0.0
 30
0.0
  0
VERTEX
  8
72_ARTEK_AKFURNITURE_D2_CH_FRA
 10
0.029
 20
-0.213787
 30
0
  0
VERTEX
  8
72_ARTEK_AKFURNITURE_D2_CH_FRA
 10
0.0292259
 20
-0.214189
 30
0
  0
VERTEX
  8
72_ARTEK_AKFURNITURE_D2_CH_FRA
 10
0.0293937
 20
-0.214618
 30
0
  0
VERTEX
  8
72_ARTEK_AKFURNITURE_D2_CH_FRA
 10
0.0294999
 20
-0.215066
 30
0
  0
VERTEX
  8
72_ARTEK_AKFURNITURE_D2_CH_FRA
 10
0.0294999
 20
-0.217245
 30
0
  0
VERTEX
  8
72_ARTEK_AKFURNITURE_D2_CH_FRA
 10
0.057
 20
-0.217245
 30
0
  0
VERTEX
  8
72_ARTEK_AKFURNITURE_D2_CH_FRA
 10
0.057
 20
0.12135
 30
0
  0
VERTEX
  8
72_ARTEK_AKFURNITURE_D2_CH_FRA
 10
0.0294807
 20
0.12135
 30
0
  0
VERTEX
  8
72_ARTEK_AKFURNITURE_D2_CH_FRA
 10
0.0294807
 20
0.120645
 30
0
  0
VERTEX
  8
72_ARTEK_AKFURNITURE_D2_CH_FRA
 10
0.0294807
 20
0.120645
 30
0
  0
VERTEX
  8
72_ARTEK_AKFURNITURE_D2_CH_FRA
 10
0.0294321
 20
0.120038
 30
0
  0
VERTEX
  8
72_ARTEK_AKFURNITURE_D2_CH_FRA
 10
0.0292699
 20
0.119451
 30
0
  0
VERTEX
  8
72_ARTEK_AKFURNITURE_D2_CH_FRA
 10
0.029
 20
0.118906
 30
0
  0
VERTEX
  8
72_ARTEK_AKFURNITURE_D2_CH_FRA
 10
0.029
 20
-0.213787
 30
0
  0
SEQEND
  0
POLYLINE
  8
72_ARTEK_AKFURNITURE_D2_CH_FRA
 66
     1
 70
     0
 10
0.0
 20
0.0
 30
0.0
  0
VERTEX
  8
72_ARTEK_AKFURNITURE_D2_CH_FRA
 10
0.0295
 20
-0.217656
 30
0
  0
VERTEX
  8
72_ARTEK_AKFURNITURE_D2_CH_FRA
 10
0.0294999
 20
-0.215066
 30
0
  0
VERTEX
  8
72_ARTEK_AKFURNITURE_D2_CH_FRA
 10
0.0294999
 20
-0.215066
 30
0
  0
VERTEX
  8
72_ARTEK_AKFURNITURE_D2_CH_FRA
 10
0.0293568
 20
-0.214507
 30
0
  0
VERTEX
  8
72_ARTEK_AKFURNITURE_D2_CH_FRA
 10
0.0291183
 20
-0.213981
 30
0
  0
VERTEX
  8
72_ARTEK_AKFURNITURE_D2_CH_FRA
 10
0.0287917
 20
-0.213505
 30
0
  0
VERTEX
  8
72_ARTEK_AKFURNITURE_D2_CH_FRA
 10
0.0283871
 20
-0.213093
 30
0
  0
VERTEX
  8
72_ARTEK_AKFURNITURE_D2_CH_FRA
 10
0.0279168
 20
-0.212759
 30
0
  0
VERTEX
  8
72_ARTEK_AKFURNITURE_D2_CH_FRA
 10
0.0273953
 20
-0.212511
 30
0
  0
VERTEX
  8
72_ARTEK_AKFURNITURE_D2_CH_FRA
 10
0.0268387
 20
-0.212358
 30
0
  0
VERTEX
  8
72_ARTEK_AKFURNITURE_D2_CH_FRA
 10
0.0262639
 20
-0.212305
 30
0
  0
VERTEX
  8
72_ARTEK_AKFURNITURE_D2_CH_FRA
 10
0.0047537
 20
-0.212305
 30
0
  0
VERTEX
  8
72_ARTEK_AKFURNITURE_D2_CH_FRA
 10
0.0047537
 20
-0.212305
 30
0
  0
VERTEX
  8
72_ARTEK_AKFURNITURE_D2_CH_FRA
 10
0.00417893
 20
-0.212358
 30
0
  0
VERTEX
  8
72_ARTEK_AKFURNITURE_D2_CH_FRA
 10
0.00362227
 20
-0.212511
 30
0
  0
VERTEX
  8
72_ARTEK_AKFURNITURE_D2_CH_FRA
 10
0.00310079
 20
-0.212759
 30
0
  0
VERTEX
  8
72_ARTEK_AKFURNITURE_D2_CH_FRA
 10
0.00263051
 20
-0.213093
 30
0
  0
VERTEX
  8
72_ARTEK_AKFURNITURE_D2_CH_FRA
 10
0.00222587
 20
-0.213505
 30
0
  0
VERTEX
  8
72_ARTEK_AKFURNITURE_D2_CH_FRA
 10
0.00189928
 20
-0.213981
 30
0
  0
VERTEX
  8
72_ARTEK_AKFURNITURE_D2_CH_FRA
 10
0.00166078
 20
-0.214507
 30
0
  0
VERTEX
  8
72_ARTEK_AKFURNITURE_D2_CH_FRA
 10
0.00151768
 20
-0.215066
 30
0
  0
VERTEX
  8
72_ARTEK_AKFURNITURE_D2_CH_FRA
 10
0.00151768
 20
-0.257572
 30
0
  0
VERTEX
  8
72_ARTEK_AKFURNITURE_D2_CH_FRA
 10
0.00151768
 20
-0.257572
 30
0
  0
VERTEX
  8
72_ARTEK_AKFURNITURE_D2_CH_FRA
 10
0.00166078
 20
-0.258131
 30
0
  0
VERTEX
  8
72_ARTEK_AKFURNITURE_D2_CH_FRA
 10
0.00189928
 20
-0.258657
 30
0
  0
VERTEX
  8
72_ARTEK_AKFURNITURE_D2_CH_FRA
 10
0.00222587
 20
-0.259133
 30
0
  0
VERTEX
  8
72_ARTEK_AKFURNITURE_D2_CH_FRA
 10
0.00263051
 20
-0.259544
 30
0
  0
VERTEX
  8
72_ARTEK_AKFURNITURE_D2_CH_FRA
 10
0.00310079
 20
-0.259879
 30
0
  0
VERTEX
  8
72_ARTEK_AKFURNITURE_D2_CH_FRA
 10
0.00362227
 20
-0.260127
 30
0
  0
VERTEX
  8
72_ARTEK_AKFURNITURE_D2_CH_FRA
 10
0.00417893
 20
-0.260279
 30
0
  0
VERTEX
  8
72_ARTEK_AKFURNITURE_D2_CH_FRA
 10
0.0047537
 20
-0.260332
 30
0
  0
VERTEX
  8
72_ARTEK_AKFURNITURE_D2_CH_FRA
 10
0.0262639
 20
-0.260332
 30
0
  0
VERTEX
  8
72_ARTEK_AKFURNITURE_D2_CH_FRA
 10
0.0262639
 20
-0.260332
 30
0
  0
VERTEX
  8
72_ARTEK_AKFURNITURE_D2_CH_FRA
 10
0.0268387
 20
-0.260279
 30
0
  0
VERTEX
  8
72_ARTEK_AKFURNITURE_D2_CH_FRA
 10
0.0273953
 20
-0.260127
 30
0
  0
VERTEX
  8
72_ARTEK_AKFURNITURE_D2_CH_FRA
 10
0.0279168
 20
-0.259879
 30
0
  0
VERTEX
  8
72_ARTEK_AKFURNITURE_D2_CH_FRA
 10
0.0283871
 20
-0.259544
 30
0
  0
VERTEX
  8
72_ARTEK_AKFURNITURE_D2_CH_FRA
 10
0.0287917
 20
-0.259133
 30
0
  0
VERTEX
  8
72_ARTEK_AKFURNITURE_D2_CH_FRA
 10
0.0291183
 20
-0.258657
 30
0
  0
VERTEX
  8
72_ARTEK_AKFURNITURE_D2_CH_FRA
 10
0.0293568
 20
-0.258131
 30
0
  0
VERTEX
  8
72_ARTEK_AKFURNITURE_D2_CH_FRA
 10
0.0294999
 20
-0.257572
 30
0
  0
VERTEX
  8
72_ARTEK_AKFURNITURE_D2_CH_FRA
 10
0.0295
 20
-0.217656
 30
0
  0
VERTEX
  8
72_ARTEK_AKFURNITURE_D2_CH_FRA
 10
0.0295
 20
-0.217656
 30
0
  0
SEQEND
  0
POLYLINE
  8
72_ARTEK_AKFURNITURE_D2_CH_FRA
 66
     1
 70
     0
 10
0.0
 20
0.0
 30
0.0
  0
VERTEX
  8
72_ARTEK_AKFURNITURE_D2_CH_FRA
 10
0.486246
 20
-0.212305
 30
0
  0
VERTEX
  8
72_ARTEK_AKFURNITURE_D2_CH_FRA
 10
0.464736
 20
-0.212305
 30
0
  0
VERTEX
  8
72_ARTEK_AKFURNITURE_D2_CH_FRA
 10
0.464736
 20
-0.212305
 30
0
  0
VERTEX
  8
72_ARTEK_AKFURNITURE_D2_CH_FRA
 10
0.464161
 20
-0.212358
 30
0
  0
VERTEX
  8
72_ARTEK_AKFURNITURE_D2_CH_FRA
 10
0.463605
 20
-0.212511
 30
0
  0
VERTEX
  8
72_ARTEK_AKFURNITURE_D2_CH_FRA
 10
0.463083
 20
-0.212759
 30
0
  0
VERTEX
  8
72_ARTEK_AKFURNITURE_D2_CH_FRA
 10
0.462613
 20
-0.213093
 30
0
  0
VERTEX
  8
72_ARTEK_AKFURNITURE_D2_CH_FRA
 10
0.462208
 20
-0.213505
 30
0
  0
VERTEX
  8
72_ARTEK_AKFURNITURE_D2_CH_FRA
 10
0.461882
 20
-0.213981
 30
0
  0
VERTEX
  8
72_ARTEK_AKFURNITURE_D2_CH_FRA
 10
0.461643
 20
-0.214507
 30
0
  0
VERTEX
  8
72_ARTEK_AKFURNITURE_D2_CH_FRA
 10
0.4615
 20
-0.215066
 30
0
  0
VERTEX
  8
72_ARTEK_AKFURNITURE_D2_CH_FRA
 10
0.4615
 20
-0.217656
 30
0
  0
VERTEX
  8
72_ARTEK_AKFURNITURE_D2_CH_FRA
 10
0.4615
 20
-0.217656
 30
0
  0
VERTEX
  8
72_ARTEK_AKFURNITURE_D2_CH_FRA
 10
0.4615
 20
-0.257572
 30
0
  0
VERTEX
  8
72_ARTEK_AKFURNITURE_D2_CH_FRA
 10
0.4615
 20
-0.257572
 30
0
  0
VERTEX
  8
72_ARTEK_AKFURNITURE_D2_CH_FRA
 10
0.461643
 20
-0.258131
 30
0
  0
VERTEX
  8
72_ARTEK_AKFURNITURE_D2_CH_FRA
 10
0.461882
 20
-0.258657
 30
0
  0
VERTEX
  8
72_ARTEK_AKFURNITURE_D2_CH_FRA
 10
0.462208
 20
-0.259133
 30
0
  0
VERTEX
  8
72_ARTEK_AKFURNITURE_D2_CH_FRA
 10
0.462613
 20
-0.259544
 30
0
  0
VERTEX
  8
72_ARTEK_AKFURNITURE_D2_CH_FRA
 10
0.463083
 20
-0.259879
 30
0
  0
VERTEX
  8
72_ARTEK_AKFURNITURE_D2_CH_FRA
 10
0.463605
 20
-0.260127
 30
0
  0
VERTEX
  8
72_ARTEK_AKFURNITURE_D2_CH_FRA
 10
0.464161
 20
-0.260279
 30
0
  0
VERTEX
  8
72_ARTEK_AKFURNITURE_D2_CH_FRA
 10
0.464736
 20
-0.260332
 30
0
  0
VERTEX
  8
72_ARTEK_AKFURNITURE_D2_CH_FRA
 10
0.486246
 20
-0.260332
 30
0
  0
VERTEX
  8
72_ARTEK_AKFURNITURE_D2_CH_FRA
 10
0.486246
 20
-0.260332
 30
0
  0
VERTEX
  8
72_ARTEK_AKFURNITURE_D2_CH_FRA
 10
0.486821
 20
-0.260279
 30
0
  0
VERTEX
  8
72_ARTEK_AKFURNITURE_D2_CH_FRA
 10
0.487378
 20
-0.260127
 30
0
  0
VERTEX
  8
72_ARTEK_AKFURNITURE_D2_CH_FRA
 10
0.487899
 20
-0.259879
 30
0
  0
VERTEX
  8
72_ARTEK_AKFURNITURE_D2_CH_FRA
 10
0.488369
 20
-0.259544
 30
0
  0
VERTEX
  8
72_ARTEK_AKFURNITURE_D2_CH_FRA
 10
0.488774
 20
-0.259133
 30
0
  0
VERTEX
  8
72_ARTEK_AKFURNITURE_D2_CH_FRA
 10
0.489101
 20
-0.258657
 30
0
  0
VERTEX
  8
72_ARTEK_AKFURNITURE_D2_CH_FRA
 10
0.489339
 20
-0.258131
 30
0
  0
VERTEX
  8
72_ARTEK_AKFURNITURE_D2_CH_FRA
 10
0.489482
 20
-0.257572
 30
0
  0
VERTEX
  8
72_ARTEK_AKFURNITURE_D2_CH_FRA
 10
0.489482
 20
-0.215066
 30
0
  0
VERTEX
  8
72_ARTEK_AKFURNITURE_D2_CH_FRA
 10
0.489482
 20
-0.215066
 30
0
  0
VERTEX
  8
72_ARTEK_AKFURNITURE_D2_CH_FRA
 10
0.489339
 20
-0.214507
 30
0
  0
VERTEX
  8
72_ARTEK_AKFURNITURE_D2_CH_FRA
 10
0.489101
 20
-0.213981
 30
0
  0
VERTEX
  8
72_ARTEK_AKFURNITURE_D2_CH_FRA
 10
0.488774
 20
-0.213505
 30
0
  0
VERTEX
  8
72_ARTEK_AKFURNITURE_D2_CH_FRA
 10
0.488369
 20
-0.213093
 30
0
  0
VERTEX
  8
72_ARTEK_AKFURNITURE_D2_CH_FRA
 10
0.487899
 20
-0.212759
 30
0
  0
VERTEX
  8
72_ARTEK_AKFURNITURE_D2_CH_FRA
 10
0.487378
 20
-0.212511
 30
0
  0
VERTEX
  8
72_ARTEK_AKFURNITURE_D2_CH_FRA
 10
0.486821
 20
-0.212358
 30
0
  0
VERTEX
  8
72_ARTEK_AKFURNITURE_D2_CH_FRA
 10
0.486246
 20
-0.212305
 30
0
  0
SEQEND
  0
POLYLINE
  8
72_ARTEK_AKFURNITURE_D2_CH_FRA
 66
     1
 70
     0
 10
0.0
 20
0.0
 30
0.0
  0
VERTEX
  8
72_ARTEK_AKFURNITURE_D2_CH_FRA
 10
0.462
 20
-0.213787
 30
0
  0
VERTEX
  8
72_ARTEK_AKFURNITURE_D2_CH_FRA
 10
0.462
 20
0.118906
 30
0
  0
VERTEX
  8
72_ARTEK_AKFURNITURE_D2_CH_FRA
 10
0.462
 20
0.118906
 30
0
  0
VERTEX
  8
72_ARTEK_AKFURNITURE_D2_CH_FRA
 10
0.46173
 20
0.119451
 30
0
  0
VERTEX
  8
72_ARTEK_AKFURNITURE_D2_CH_FRA
 10
0.461568
 20
0.120038
 30
0
  0
VERTEX
  8
72_ARTEK_AKFURNITURE_D2_CH_FRA
 10
0.461519
 20
0.120645
 30
0
  0
VERTEX
  8
72_ARTEK_AKFURNITURE_D2_CH_FRA
 10
0.461519
 20
0.12135
 30
0
  0
VERTEX
  8
72_ARTEK_AKFURNITURE_D2_CH_FRA
 10
0.434
 20
0.12135
 30
0
  0
VERTEX
  8
72_ARTEK_AKFURNITURE_D2_CH_FRA
 10
0.434
 20
-0.217245
 30
0
  0
VERTEX
  8
72_ARTEK_AKFURNITURE_D2_CH_FRA
 10
0.4615
 20
-0.217245
 30
0
  0
VERTEX
  8
72_ARTEK_AKFURNITURE_D2_CH_FRA
 10
0.4615
 20
-0.215066
 30
0
  0
VERTEX
  8
72_ARTEK_AKFURNITURE_D2_CH_FRA
 10
0.4615
 20
-0.215066
 30
0
  0
VERTEX
  8
72_ARTEK_AKFURNITURE_D2_CH_FRA
 10
0.461606
 20
-0.214618
 30
0
  0
VERTEX
  8
72_ARTEK_AKFURNITURE_D2_CH_FRA
 10
0.461774
 20
-0.214189
 30
0
  0
VERTEX
  8
72_ARTEK_AKFURNITURE_D2_CH_FRA
 10
0.462
 20
-0.213787
 30
0
  0
SEQEND
  0
POLYLINE
  8
72_ARTEK_AKFURNITURE_D2SNAP
 66
     1
 70
     0
 10
0.0
 20
0.0
 30
0.0
  0
VERTEX
  8
72_ARTEK_AKFURNITURE_D2SNAP
 10
0.258
 20
-0
 30
0
  0
VERTEX
  8
72_ARTEK_AKFURNITURE_D2SNAP
 10
0.25776
 20
0.00243863
 30
0
  0
VERTEX
  8
72_ARTEK_AKFURNITURE_D2SNAP
 10
0.257048
 20
0.00478354
 30
0
  0
VERTEX
  8
72_ARTEK_AKFURNITURE_D2SNAP
 10
0.255893
 20
0.00694463
 30
0
  0
VERTEX
  8
72_ARTEK_AKFURNITURE_D2SNAP
 10
0.254339
 20
0.00883883
 30
0
  0
VERTEX
  8
72_ARTEK_AKFURNITURE_D2SNAP
 10
0.252445
 20
0.0103934
 30
0
  0
VERTEX
  8
72_ARTEK_AKFURNITURE_D2SNAP
 10
0.250284
 20
0.0115485
 30
0
  0
VERTEX
  8
72_ARTEK_AKFURNITURE_D2SNAP
 10
0.247939
 20
0.0122598
 30
0
  0
VERTEX
  8
72_ARTEK_AKFURNITURE_D2SNAP
 10
0.2455
 20
0.0125
 30
0
  0
VERTEX
  8
72_ARTEK_AKFURNITURE_D2SNAP
 10
0.243061
 20
0.0122598
 30
0
  0
VERTEX
  8
72_ARTEK_AKFURNITURE_D2SNAP
 10
0.240716
 20
0.0115485
 30
0
  0
VERTEX
  8
72_ARTEK_AKFURNITURE_D2SNAP
 10
0.238555
 20
0.0103934
 30
0
  0
VERTEX
  8
72_ARTEK_AKFURNITURE_D2SNAP
 10
0.236661
 20
0.00883883
 30
0
  0
VERTEX
  8
72_ARTEK_AKFURNITURE_D2SNAP
 10
0.235107
 20
0.00694463
 30
0
  0
VERTEX
  8
72_ARTEK_AKFURNITURE_D2SNAP
 10
0.233952
 20
0.00478354
 30
0
  0
VERTEX
  8
72_ARTEK_AKFURNITURE_D2SNAP
 10
0.23324
 20
0.00243863
 30
0
  0
VERTEX
  8
72_ARTEK_AKFURNITURE_D2SNAP
 10
0.233
 20
3.15316e-018
 30
0
  0
VERTEX
  8
72_ARTEK_AKFURNITURE_D2SNAP
 10
0.23324
 20
-0.00243863
 30
0
  0
VERTEX
  8
72_ARTEK_AKFURNITURE_D2SNAP
 10
0.233952
 20
-0.00478354
 30
0
  0
VERTEX
  8
72_ARTEK_AKFURNITURE_D2SNAP
 10
0.235107
 20
-0.00694463
 30
0
  0
VERTEX
  8
72_ARTEK_AKFURNITURE_D2SNAP
 10
0.236661
 20
-0.00883883
 30
0
  0
VERTEX
  8
72_ARTEK_AKFURNITURE_D2SNAP
 10
0.238555
 20
-0.0103934
 30
0
  0
VERTEX
  8
72_ARTEK_AKFURNITURE_D2SNAP
 10
0.240716
 20
-0.0115485
 30
0
  0
VERTEX
  8
72_ARTEK_AKFURNITURE_D2SNAP
 10
0.243061
 20
-0.0122598
 30
0
  0
VERTEX
  8
72_ARTEK_AKFURNITURE_D2SNAP
 10
0.2455
 20
-0.0125
 30
0
  0
VERTEX
  8
72_ARTEK_AKFURNITURE_D2SNAP
 10
0.247939
 20
-0.0122598
 30
0
  0
VERTEX
  8
72_ARTEK_AKFURNITURE_D2SNAP
 10
0.250284
 20
-0.0115485
 30
0
  0
VERTEX
  8
72_ARTEK_AKFURNITURE_D2SNAP
 10
0.252445
 20
-0.0103934
 30
0
  0
VERTEX
  8
72_ARTEK_AKFURNITURE_D2SNAP
 10
0.254339
 20
-0.00883883
 30
0
  0
VERTEX
  8
72_ARTEK_AKFURNITURE_D2SNAP
 10
0.255893
 20
-0.00694463
 30
0
  0
VERTEX
  8
72_ARTEK_AKFURNITURE_D2SNAP
 10
0.257048
 20
-0.00478354
 30
0
  0
VERTEX
  8
72_ARTEK_AKFURNITURE_D2SNAP
 10
0.25776
 20
-0.00243863
 30
0
  0
VERTEX
  8
72_ARTEK_AKFURNITURE_D2SNAP
 10
0.258
 20
-0
 30
0
  0
SEQEND
  0
POLYLINE
  8
72_ARTEK_AKFURNITURE_D2SNAP
 66
     1
 70
     0
 10
0.0
 20
0.0
 30
0.0
  0
VERTEX
  8
72_ARTEK_AKFURNITURE_D2SNAP
 10
0.227822
 20
-0.0176777
 30
0
  0
VERTEX
  8
72_ARTEK_AKFURNITURE_D2SNAP
 10
0.263178
 20
0.0176777
 30
0
  0
SEQEND
  0
POLYLINE
  8
72_ARTEK_AKFURNITURE_D2SNAP
 66
     1
 70
     0
 10
0.0
 20
0.0
 30
0.0
  0
VERTEX
  8
72_ARTEK_AKFURNITURE_D2SNAP
 10
0.227822
 20
0.0176777
 30
0
  0
VERTEX
  8
72_ARTEK_AKFURNITURE_D2SNAP
 10
0.263178
 20
-0.0176777
 30
0
  0
SEQEND
  0
POLYLINE
  8
72_ARTEK_AKFURNITURE_D2_CH_SEA
 66
     1
 70
     0
 10
0.0
 20
0.0
 30
0.0
  0
VERTEX
  8
72_ARTEK_AKFURNITURE_D2_CH_SEA
 10
0.0507778
 20
0.21844
 30
0
  0
VERTEX
  8
72_ARTEK_AKFURNITURE_D2_CH_SEA
 10
0.0506558
 20
0.214896
 30
0
  0
VERTEX
  8
72_ARTEK_AKFURNITURE_D2_CH_SEA
 10
0.0513615
 20
0.214988
 30
0
  0
VERTEX
  8
72_ARTEK_AKFURNITURE_D2_CH_SEA
 10
0.0513615
 20
0.214976
 30
0
  0
VERTEX
  8
72_ARTEK_AKFURNITURE_D2_CH_SEA
 10
0.0996027
 20
0.220488
 30
0
  0
VERTEX
  8
72_ARTEK_AKFURNITURE_D2_CH_SEA
 10
0.0995571
 20
0.232195
 30
0
  0
VERTEX
  8
72_ARTEK_AKFURNITURE_D2_CH_SEA
 10
0.0995295
 20
0.232874
 30
0
  0
VERTEX
  8
72_ARTEK_AKFURNITURE_D2_CH_SEA
 10
0.0973947
 20
0.256903
 30
0
  0
VERTEX
  8
72_ARTEK_AKFURNITURE_D2_CH_SEA
 10
0.0973307
 20
0.25733
 30
0
  0
VERTEX
  8
72_ARTEK_AKFURNITURE_D2_CH_SEA
 10
0.0723928
 20
0.255117
 30
0
  0
VERTEX
  8
72_ARTEK_AKFURNITURE_D2_CH_SEA
 10
0.0475163
 20
0.252188
 30
0
  0
VERTEX
  8
72_ARTEK_AKFURNITURE_D2_CH_SEA
 10
0.0476325
 20
0.251621
 30
0
  0
VERTEX
  8
72_ARTEK_AKFURNITURE_D2_CH_SEA
 10
0.0478122
 20
0.250417
 30
0
  0
VERTEX
  8
72_ARTEK_AKFURNITURE_D2_CH_SEA
 10
0.0479945
 20
0.249019
 30
0
  0
VERTEX
  8
72_ARTEK_AKFURNITURE_D2_CH_SEA
 10
0.0500453
 20
0.232442
 30
0
  0
VERTEX
  8
72_ARTEK_AKFURNITURE_D2_CH_SEA
 10
0.0502287
 20
0.230893
 30
0
  0
VERTEX
  8
72_ARTEK_AKFURNITURE_D2_CH_SEA
 10
0.0504124
 20
0.22917
 30
0
  0
VERTEX
  8
72_ARTEK_AKFURNITURE_D2_CH_SEA
 10
0.0505443
 20
0.227644
 30
0
  0
VERTEX
  8
72_ARTEK_AKFURNITURE_D2_CH_SEA
 10
0.0505726
 20
0.227135
 30
0
  0
VERTEX
  8
72_ARTEK_AKFURNITURE_D2_CH_SEA
 10
0.0507778
 20
0.21844
 30
0
  0
SEQEND
  0
POLYLINE
  8
72_ARTEK_AKFURNITURE_D2_CH_SEA
 66
     1
 70
     0
 10
0.0
 20
0.0
 30
0.0
  0
VERTEX
  8
72_ARTEK_AKFURNITURE_D2_CH_SEA
 10
0.118435
 20
0.206076
 30
0
  0
VERTEX
  8
72_ARTEK_AKFURNITURE_D2_CH_SEA
 10
0.166932
 20
0.208031
 30
0
  0
VERTEX
  8
72_ARTEK_AKFURNITURE_D2_CH_SEA
 10
0.167429
 20
0.208093
 30
0
  0
VERTEX
  8
72_ARTEK_AKFURNITURE_D2_CH_SEA
 10
0.167855
 20
0.226466
 30
0
  0
VERTEX
  8
72_ARTEK_AKFURNITURE_D2_CH_SEA
 10
0.167696
 20
0.236603
 30
0
  0
VERTEX
  8
72_ARTEK_AKFURNITURE_D2_CH_SEA
 10
0.16768
 20
0.237283
 30
0
  0
VERTEX
  8
72_ARTEK_AKFURNITURE_D2_CH_SEA
 10
0.167493
 20
0.241936
 30
0
  0
VERTEX
  8
72_ARTEK_AKFURNITURE_D2_CH_SEA
 10
0.16672
 20
0.258614
 30
0
  0
VERTEX
  8
72_ARTEK_AKFURNITURE_D2_CH_SEA
 10
0.166651
 20
0.260021
 30
0
  0
VERTEX
  8
72_ARTEK_AKFURNITURE_D2_CH_SEA
 10
0.166543
 20
0.261807
 30
0
  0
VERTEX
  8
72_ARTEK_AKFURNITURE_D2_CH_SEA
 10
0.141555
 20
0.260702
 30
0
  0
VERTEX
  8
72_ARTEK_AKFURNITURE_D2_CH_SEA
 10
0.116598
 20
0.258863
 30
0
  0
VERTEX
  8
72_ARTEK_AKFURNITURE_D2_CH_SEA
 10
0.116674
 20
0.258292
 30
0
  0
VERTEX
  8
72_ARTEK_AKFURNITURE_D2_CH_SEA
 10
0.11679
 20
0.257082
 30
0
  0
VERTEX
  8
72_ARTEK_AKFURNITURE_D2_CH_SEA
 10
0.116909
 20
0.255678
 30
0
  0
VERTEX
  8
72_ARTEK_AKFURNITURE_D2_CH_SEA
 10
0.118263
 20
0.239035
 30
0
  0
VERTEX
  8
72_ARTEK_AKFURNITURE_D2_CH_SEA
 10
0.118501
 20
0.23575
 30
0
  0
VERTEX
  8
72_ARTEK_AKFURNITURE_D2_CH_SEA
 10
0.118581
 20
0.23439
 30
0
  0
VERTEX
  8
72_ARTEK_AKFURNITURE_D2_CH_SEA
 10
0.118605
 20
0.23371
 30
0
  0
VERTEX
  8
72_ARTEK_AKFURNITURE_D2_CH_SEA
 10
0.118835
 20
0.223577
 30
0
  0
VERTEX
  8
72_ARTEK_AKFURNITURE_D2_CH_SEA
 10
0.118435
 20
0.206076
 30
0
  0
SEQEND
  0
POLYLINE
  8
72_ARTEK_AKFURNITURE_D2_CH_SEA
 66
     1
 70
     0
 10
0.0
 20
0.0
 30
0.0
  0
VERTEX
  8
72_ARTEK_AKFURNITURE_D2_CH_SEA
 10
0.374182
 20
0.257082
 30
0
  0
VERTEX
  8
72_ARTEK_AKFURNITURE_D2_CH_SEA
 10
0.374299
 20
0.258292
 30
0
  0
VERTEX
  8
72_ARTEK_AKFURNITURE_D2_CH_SEA
 10
0.374374
 20
0.258863
 30
0
  0
VERTEX
  8
72_ARTEK_AKFURNITURE_D2_CH_SEA
 10
0.349417
 20
0.260702
 30
0
  0
VERTEX
  8
72_ARTEK_AKFURNITURE_D2_CH_SEA
 10
0.324429
 20
0.261807
 30
0
  0
VERTEX
  8
72_ARTEK_AKFURNITURE_D2_CH_SEA
 10
0.324321
 20
0.260021
 30
0
  0
VERTEX
  8
72_ARTEK_AKFURNITURE_D2_CH_SEA
 10
0.324253
 20
0.258614
 30
0
  0
VERTEX
  8
72_ARTEK_AKFURNITURE_D2_CH_SEA
 10
0.323479
 20
0.241936
 30
0
  0
VERTEX
  8
72_ARTEK_AKFURNITURE_D2_CH_SEA
 10
0.323292
 20
0.237283
 30
0
  0
VERTEX
  8
72_ARTEK_AKFURNITURE_D2_CH_SEA
 10
0.323277
 20
0.236603
 30
0
  0
VERTEX
  8
72_ARTEK_AKFURNITURE_D2_CH_SEA
 10
0.323121
 20
0.226727
 30
0
  0
VERTEX
  8
72_ARTEK_AKFURNITURE_D2_CH_SEA
 10
0.372138
 20
0.223577
 30
0
  0
VERTEX
  8
72_ARTEK_AKFURNITURE_D2_CH_SEA
 10
0.372367
 20
0.23371
 30
0
  0
VERTEX
  8
72_ARTEK_AKFURNITURE_D2_CH_SEA
 10
0.372391
 20
0.23439
 30
0
  0
VERTEX
  8
72_ARTEK_AKFURNITURE_D2_CH_SEA
 10
0.372471
 20
0.23575
 30
0
  0
VERTEX
  8
72_ARTEK_AKFURNITURE_D2_CH_SEA
 10
0.37271
 20
0.239035
 30
0
  0
VERTEX
  8
72_ARTEK_AKFURNITURE_D2_CH_SEA
 10
0.374064
 20
0.255678
 30
0
  0
VERTEX
  8
72_ARTEK_AKFURNITURE_D2_CH_SEA
 10
0.374182
 20
0.257082
 30
0
  0
SEQEND
  0
POLYLINE
  8
72_ARTEK_AKFURNITURE_D2_CH_SEA
 66
     1
 70
     0
 10
0.0
 20
0.0
 30
0.0
  0
VERTEX
  8
72_ARTEK_AKFURNITURE_D2_CH_SEA
 10
0.00151378
 20
0.211659
 30
0
  0
VERTEX
  8
72_ARTEK_AKFURNITURE_D2_CH_SEA
 10
0.00151378
 20
0.197909
 30
0
  0
VERTEX
  8
72_ARTEK_AKFURNITURE_D2_CH_SEA
 10
0.0294866
 20
0.197909
 30
0
  0
VERTEX
  8
72_ARTEK_AKFURNITURE_D2_CH_SEA
 10
0.0294866
 20
0.211659
 30
0
  0
VERTEX
  8
72_ARTEK_AKFURNITURE_D2_CH_SEA
 10
0.00151378
 20
0.211659
 30
0
  0
SEQEND
  0
POLYLINE
  8
72_ARTEK_AKFURNITURE_D2_CH_SEA
 66
     1
 70
     0
 10
0.0
 20
0.0
 30
0.0
  0
VERTEX
  8
72_ARTEK_AKFURNITURE_D2_CH_SEA
 10
0.00151473
 20
0.183122
 30
0
  0
VERTEX
  8
72_ARTEK_AKFURNITURE_D2_CH_SEA
 10
0.0294854
 20
0.183122
 30
0
  0
VERTEX
  8
72_ARTEK_AKFURNITURE_D2_CH_SEA
 10
0.0294853
 20
0.19713
 30
0
  0
VERTEX
  8
72_ARTEK_AKFURNITURE_D2_CH_SEA
 10
0.00151473
 20
0.19713
 30
0
  0
VERTEX
  8
72_ARTEK_AKFURNITURE_D2_CH_SEA
 10
0.00151473
 20
0.183122
 30
0
  0
SEQEND
  0
POLYLINE
  8
72_ARTEK_AKFURNITURE_D2_CH_SEA
 66
     1
 70
     0
 10
0.0
 20
0.0
 30
0.0
  0
VERTEX
  8
72_ARTEK_AKFURNITURE_D2_CH_SEA
 10
0.0294843
 20
0.167357
 30
0
  0
VERTEX
  8
72_ARTEK_AKFURNITURE_D2_CH_SEA
 10
0.0294843
 20
0.182102
 30
0
  0
VERTEX
  8
72_ARTEK_AKFURNITURE_D2_CH_SEA
 10
0.00151589
 20
0.182102
 30
0
  0
VERTEX
  8
72_ARTEK_AKFURNITURE_D2_CH_SEA
 10
0.00151589
 20
0.167357
 30
0
  0
VERTEX
  8
72_ARTEK_AKFURNITURE_D2_CH_SEA
 10
0.0294843
 20
0.167357
 30
0
  0
SEQEND
  0
POLYLINE
  8
72_ARTEK_AKFURNITURE_D2_CH_SEA
 66
     1
 70
     0
 10
0.0
 20
0.0
 30
0.0
  0
VERTEX
  8
72_ARTEK_AKFURNITURE_D2_CH_SEA
 10
0.0294833
 20
0.150838
 30
0
  0
VERTEX
  8
72_ARTEK_AKFURNITURE_D2_CH_SEA
 10
0.0294833
 20
0.166107
 30
0
  0
VERTEX
  8
72_ARTEK_AKFURNITURE_D2_CH_SEA
 10
0.00151684
 20
0.166107
 30
0
  0
VERTEX
  8
72_ARTEK_AKFURNITURE_D2_CH_SEA
 10
0.00151684
 20
0.150838
 30
0
  0
VERTEX
  8
72_ARTEK_AKFURNITURE_D2_CH_SEA
 10
0.0294833
 20
0.150838
 30
0
  0
SEQEND
  0
POLYLINE
  8
72_ARTEK_AKFURNITURE_D2_CH_SEA
 66
     1
 70
     0
 10
0.0
 20
0.0
 30
0.0
  0
VERTEX
  8
72_ARTEK_AKFURNITURE_D2_CH_SEA
 10
0.0495533
 20
0.169615
 30
0
  0
VERTEX
  8
72_ARTEK_AKFURNITURE_D2_CH_SEA
 10
0.0494771
 20
0.169608
 30
0
  0
VERTEX
  8
72_ARTEK_AKFURNITURE_D2_CH_SEA
 10
0.0494771
 20
0.184354
 30
0
  0
VERTEX
  8
72_ARTEK_AKFURNITURE_D2_CH_SEA
 10
0.0294843
 20
0.182102
 30
0
  0
VERTEX
  8
72_ARTEK_AKFURNITURE_D2_CH_SEA
 10
0.0294843
 20
0.167357
 30
0
  0
VERTEX
  8
72_ARTEK_AKFURNITURE_D2_CH_SEA
 10
0.0495533
 20
0.169615
 30
0
  0
SEQEND
  0
POLYLINE
  8
72_ARTEK_AKFURNITURE_D2_CH_SEA
 66
     1
 70
     0
 10
0.0
 20
0.0
 30
0.0
  0
VERTEX
  8
72_ARTEK_AKFURNITURE_D2_CH_SEA
 10
0.0294833
 20
0.150838
 30
0
  0
VERTEX
  8
72_ARTEK_AKFURNITURE_D2_CH_SEA
 10
0.0493341
 20
0.158453
 30
0
  0
VERTEX
  8
72_ARTEK_AKFURNITURE_D2_CH_SEA
 10
0.0495533
 20
0.169615
 30
0
  0
VERTEX
  8
72_ARTEK_AKFURNITURE_D2_CH_SEA
 10
0.0392232
 20
0.168453
 30
0
  0
VERTEX
  8
72_ARTEK_AKFURNITURE_D2_CH_SEA
 10
0.0294833
 20
0.166107
 30
0
  0
VERTEX
  8
72_ARTEK_AKFURNITURE_D2_CH_SEA
 10
0.0294833
 20
0.150838
 30
0
  0
SEQEND
  0
POLYLINE
  8
72_ARTEK_AKFURNITURE_D2_CH_SEA
 66
     1
 70
     0
 10
0.0
 20
0.0
 30
0.0
  0
VERTEX
  8
72_ARTEK_AKFURNITURE_D2_CH_SEA
 10
0.118835
 20
0.223577
 30
0
  0
VERTEX
  8
72_ARTEK_AKFURNITURE_D2_CH_SEA
 10
0.117973
 20
0.223641
 30
0
  0
VERTEX
  8
72_ARTEK_AKFURNITURE_D2_CH_SEA
 10
0.100322
 20
0.220488
 30
0
  0
VERTEX
  8
72_ARTEK_AKFURNITURE_D2_CH_SEA
 10
0.0532075
 20
0.214896
 30
0
  0
VERTEX
  8
72_ARTEK_AKFURNITURE_D2_CH_SEA
 10
0.0294866
 20
0.211659
 30
0
  0
VERTEX
  8
72_ARTEK_AKFURNITURE_D2_CH_SEA
 10
0.0294866
 20
0.197909
 30
0
  0
VERTEX
  8
72_ARTEK_AKFURNITURE_D2_CH_SEA
 10
0.0538929
 20
0.201171
 30
0
  0
VERTEX
  8
72_ARTEK_AKFURNITURE_D2_CH_SEA
 10
0.100471
 20
0.205411
 30
0
  0
VERTEX
  8
72_ARTEK_AKFURNITURE_D2_CH_SEA
 10
0.118047
 20
0.20853
 30
0
  0
VERTEX
  8
72_ARTEK_AKFURNITURE_D2_CH_SEA
 10
0.118504
 20
0.208553
 30
0
  0
VERTEX
  8
72_ARTEK_AKFURNITURE_D2_CH_SEA
 10
0.118835
 20
0.223577
 30
0
  0
SEQEND
  0
POLYLINE
  8
72_ARTEK_AKFURNITURE_D2_CH_SEA
 66
     1
 70
     0
 10
0.0
 20
0.0
 30
0.0
  0
VERTEX
  8
72_ARTEK_AKFURNITURE_D2_CH_SEA
 10
0.0499899
 20
0.184394
 30
0
  0
VERTEX
  8
72_ARTEK_AKFURNITURE_D2_CH_SEA
 10
0.0984329
 20
0.187964
 30
0
  0
VERTEX
  8
72_ARTEK_AKFURNITURE_D2_CH_SEA
 10
0.0990655
 20
0.188112
 30
0
  0
VERTEX
  8
72_ARTEK_AKFURNITURE_D2_CH_SEA
 10
0.099462
 20
0.204628
 30
0
  0
VERTEX
  8
72_ARTEK_AKFURNITURE_D2_CH_SEA
 10
0.0513679
 20
0.200566
 30
0
  0
VERTEX
  8
72_ARTEK_AKFURNITURE_D2_CH_SEA
 10
0.0504893
 20
0.200457
 30
0
  0
VERTEX
  8
72_ARTEK_AKFURNITURE_D2_CH_SEA
 10
0.0499899
 20
0.184394
 30
0
  0
SEQEND
  0
POLYLINE
  8
72_ARTEK_AKFURNITURE_D2_CH_SEA
 66
     1
 70
     0
 10
0.0
 20
0.0
 30
0.0
  0
VERTEX
  8
72_ARTEK_AKFURNITURE_D2_CH_SEA
 10
0.117422
 20
0.177796
 30
0
  0
VERTEX
  8
72_ARTEK_AKFURNITURE_D2_CH_SEA
 10
0.117808
 20
0.177801
 30
0
  0
VERTEX
  8
72_ARTEK_AKFURNITURE_D2_CH_SEA
 10
0.118103
 20
0.190159
 30
0
  0
VERTEX
  8
72_ARTEK_AKFURNITURE_D2_CH_SEA
 10
0.108745
 20
0.1906
 30
0
  0
VERTEX
  8
72_ARTEK_AKFURNITURE_D2_CH_SEA
 10
0.0984329
 20
0.188098
 30
0
  0
VERTEX
  8
72_ARTEK_AKFURNITURE_D2_CH_SEA
 10
0.0494639
 20
0.184354
 30
0
  0
VERTEX
  8
72_ARTEK_AKFURNITURE_D2_CH_SEA
 10
0.0494639
 20
0.169608
 30
0
  0
VERTEX
  8
72_ARTEK_AKFURNITURE_D2_CH_SEA
 10
0.0741225
 20
0.171494
 30
0
  0
VERTEX
  8
72_ARTEK_AKFURNITURE_D2_CH_SEA
 10
0.0984857
 20
0.173365
 30
0
  0
VERTEX
  8
72_ARTEK_AKFURNITURE_D2_CH_SEA
 10
0.117422
 20
0.177796
 30
0
  0
SEQEND
  0
POLYLINE
  8
72_ARTEK_AKFURNITURE_D2_CH_SEA
 66
     1
 70
     0
 10
0.0
 20
0.0
 30
0.0
  0
VERTEX
  8
72_ARTEK_AKFURNITURE_D2_CH_SEA
 10
0.098045
 20
0.157214
 30
0
  0
VERTEX
  8
72_ARTEK_AKFURNITURE_D2_CH_SEA
 10
0.0984857
 20
0.173365
 30
0
  0
VERTEX
  8
72_ARTEK_AKFURNITURE_D2_CH_SEA
 10
0.0741225
 20
0.171494
 30
0
  0
VERTEX
  8
72_ARTEK_AKFURNITURE_D2_CH_SEA
 10
0.0495533
 20
0.169615
 30
0
  0
VERTEX
  8
72_ARTEK_AKFURNITURE_D2_CH_SEA
 10
0.0491502
 20
0.152113
 30
0
  0
VERTEX
  8
72_ARTEK_AKFURNITURE_D2_CH_SEA
 10
0.0488164
 20
0.147656
 30
0
  0
VERTEX
  8
72_ARTEK_AKFURNITURE_D2_CH_SEA
 10
0.0733846
 20
0.15056
 30
0
  0
VERTEX
  8
72_ARTEK_AKFURNITURE_D2_CH_SEA
 10
0.097777
 20
0.152764
 30
0
  0
VERTEX
  8
72_ARTEK_AKFURNITURE_D2_CH_SEA
 10
0.098045
 20
0.157214
 30
0
  0
SEQEND
  0
POLYLINE
  8
72_ARTEK_AKFURNITURE_D2_CH_SEA
 66
     1
 70
     0
 10
0.0
 20
0.0
 30
0.0
  0
VERTEX
  8
72_ARTEK_AKFURNITURE_D2_CH_SEA
 10
0.166184
 20
0.163455
 30
0
  0
VERTEX
  8
72_ARTEK_AKFURNITURE_D2_CH_SEA
 10
0.117597
 20
0.160794
 30
0
  0
VERTEX
  8
72_ARTEK_AKFURNITURE_D2_CH_SEA
 10
0.117152
 20
0.160813
 30
0
  0
VERTEX
  8
72_ARTEK_AKFURNITURE_D2_CH_SEA
 10
0.117021
 20
0.154311
 30
0
  0
VERTEX
  8
72_ARTEK_AKFURNITURE_D2_CH_SEA
 10
0.166129
 20
0.157264
 30
0
  0
VERTEX
  8
72_ARTEK_AKFURNITURE_D2_CH_SEA
 10
0.166184
 20
0.163455
 30
0
  0
SEQEND
  0
POLYLINE
  8
72_ARTEK_AKFURNITURE_D2_CH_SEA
 66
     1
 70
     0
 10
0.0
 20
0.0
 30
0.0
  0
VERTEX
  8
72_ARTEK_AKFURNITURE_D2_CH_SEA
 10
0.167004
 20
0.19211
 30
0
  0
VERTEX
  8
72_ARTEK_AKFURNITURE_D2_CH_SEA
 10
0.118323
 20
0.190149
 30
0
  0
VERTEX
  8
72_ARTEK_AKFURNITURE_D2_CH_SEA
 10
0.118103
 20
0.190159
 30
0
  0
VERTEX
  8
72_ARTEK_AKFURNITURE_D2_CH_SEA
 10
0.117808
 20
0.177801
 30
0
  0
VERTEX
  8
72_ARTEK_AKFURNITURE_D2_CH_SEA
 10
0.117756
 20
0.173454
 30
0
  0
VERTEX
  8
72_ARTEK_AKFURNITURE_D2_CH_SEA
 10
0.166536
 20
0.176156
 30
0
  0
VERTEX
  8
72_ARTEK_AKFURNITURE_D2_CH_SEA
 10
0.167103
 20
0.192123
 30
0
  0
VERTEX
  8
72_ARTEK_AKFURNITURE_D2_CH_SEA
 10
0.167004
 20
0.19211
 30
0
  0
SEQEND
  0
POLYLINE
  8
72_ARTEK_AKFURNITURE_D2_CH_SEA
 66
     1
 70
     0
 10
0.0
 20
0.0
 30
0.0
  0
VERTEX
  8
72_ARTEK_AKFURNITURE_D2_CH_SEA
 10
0.0997574
 20
0.205411
 30
0
  0
VERTEX
  8
72_ARTEK_AKFURNITURE_D2_CH_SEA
 10
0.099462
 20
0.205385
 30
0
  0
VERTEX
  8
72_ARTEK_AKFURNITURE_D2_CH_SEA
 10
0.0991302
 20
0.19105
 30
0
  0
VERTEX
  8
72_ARTEK_AKFURNITURE_D2_CH_SEA
 10
0.0991679
 20
0.191052
 30
0
  0
VERTEX
  8
72_ARTEK_AKFURNITURE_D2_CH_SEA
 10
0.118323
 20
0.190149
 30
0
  0
VERTEX
  8
72_ARTEK_AKFURNITURE_D2_CH_SEA
 10
0.167004
 20
0.19211
 30
0
  0
VERTEX
  8
72_ARTEK_AKFURNITURE_D2_CH_SEA
 10
0.185326
 20
0.194413
 30
0
  0
VERTEX
  8
72_ARTEK_AKFURNITURE_D2_CH_SEA
 10
0.185834
 20
0.194413
 30
0
  0
VERTEX
  8
72_ARTEK_AKFURNITURE_D2_CH_SEA
 10
0.186332
 20
0.208233
 30
0
  0
VERTEX
  8
72_ARTEK_AKFURNITURE_D2_CH_SEA
 10
0.178853
 20
0.209529
 30
0
  0
VERTEX
  8
72_ARTEK_AKFURNITURE_D2_CH_SEA
 10
0.166932
 20
0.208031
 30
0
  0
VERTEX
  8
72_ARTEK_AKFURNITURE_D2_CH_SEA
 10
0.11825
 20
0.206069
 30
0
  0
VERTEX
  8
72_ARTEK_AKFURNITURE_D2_CH_SEA
 10
0.10678
 20
0.206611
 30
0
  0
VERTEX
  8
72_ARTEK_AKFURNITURE_D2_CH_SEA
 10
0.0997574
 20
0.205411
 30
0
  0
SEQEND
  0
POLYLINE
  8
72_ARTEK_AKFURNITURE_D2_CH_SEA
 66
     1
 70
     0
 10
0.0
 20
0.0
 30
0.0
  0
VERTEX
  8
72_ARTEK_AKFURNITURE_D2_CH_SEA
 10
0.104923
 20
0.174871
 30
0
  0
VERTEX
  8
72_ARTEK_AKFURNITURE_D2_CH_SEA
 10
0.0984857
 20
0.173365
 30
0
  0
VERTEX
  8
72_ARTEK_AKFURNITURE_D2_CH_SEA
 10
0.0981651
 20
0.161616
 30
0
  0
VERTEX
  8
72_ARTEK_AKFURNITURE_D2_CH_SEA
 10
0.117597
 20
0.160794
 30
0
  0
VERTEX
  8
72_ARTEK_AKFURNITURE_D2_CH_SEA
 10
0.166397
 20
0.163467
 30
0
  0
VERTEX
  8
72_ARTEK_AKFURNITURE_D2_CH_SEA
 10
0.184408
 20
0.166645
 30
0
  0
VERTEX
  8
72_ARTEK_AKFURNITURE_D2_CH_SEA
 10
0.184793
 20
0.166652
 30
0
  0
VERTEX
  8
72_ARTEK_AKFURNITURE_D2_CH_SEA
 10
0.18518
 20
0.176817
 30
0
  0
VERTEX
  8
72_ARTEK_AKFURNITURE_D2_CH_SEA
 10
0.179447
 20
0.177555
 30
0
  0
VERTEX
  8
72_ARTEK_AKFURNITURE_D2_CH_SEA
 10
0.166536
 20
0.176156
 30
0
  0
VERTEX
  8
72_ARTEK_AKFURNITURE_D2_CH_SEA
 10
0.117756
 20
0.173454
 30
0
  0
VERTEX
  8
72_ARTEK_AKFURNITURE_D2_CH_SEA
 10
0.104923
 20
0.174871
 30
0
  0
SEQEND
  0
POLYLINE
  8
72_ARTEK_AKFURNITURE_D2_CH_SEA
 66
     1
 70
     0
 10
0.0
 20
0.0
 30
0.0
  0
VERTEX
  8
72_ARTEK_AKFURNITURE_D2_CH_SEA
 10
0.186332
 20
0.208233
 30
0
  0
VERTEX
  8
72_ARTEK_AKFURNITURE_D2_CH_SEA
 10
0.185728
 20
0.191492
 30
0
  0
VERTEX
  8
72_ARTEK_AKFURNITURE_D2_CH_SEA
 10
0.23508
 20
0.192266
 30
0
  0
VERTEX
  8
72_ARTEK_AKFURNITURE_D2_CH_SEA
 10
0.23514
 20
0.192269
 30
0
  0
VERTEX
  8
72_ARTEK_AKFURNITURE_D2_CH_SEA
 10
0.235664
 20
0.208935
 30
0
  0
VERTEX
  8
72_ARTEK_AKFURNITURE_D2_CH_SEA
 10
0.186574
 20
0.208191
 30
0
  0
VERTEX
  8
72_ARTEK_AKFURNITURE_D2_CH_SEA
 10
0.186332
 20
0.208233
 30
0
  0
SEQEND
  0
POLYLINE
  8
72_ARTEK_AKFURNITURE_D2_CH_SEA
 66
     1
 70
     0
 10
0.0
 20
0.0
 30
0.0
  0
VERTEX
  8
72_ARTEK_AKFURNITURE_D2_CH_SEA
 10
0.256347
 20
0.177514
 30
0
  0
VERTEX
  8
72_ARTEK_AKFURNITURE_D2_CH_SEA
 10
0.255798
 20
0.193419
 30
0
  0
VERTEX
  8
72_ARTEK_AKFURNITURE_D2_CH_SEA
 10
0.235166
 20
0.193093
 30
0
  0
VERTEX
  8
72_ARTEK_AKFURNITURE_D2_CH_SEA
 10
0.23514
 20
0.192269
 30
0
  0
VERTEX
  8
72_ARTEK_AKFURNITURE_D2_CH_SEA
 10
0.23508
 20
0.192266
 30
0
  0
VERTEX
  8
72_ARTEK_AKFURNITURE_D2_CH_SEA
 10
0.185728
 20
0.191492
 30
0
  0
VERTEX
  8
72_ARTEK_AKFURNITURE_D2_CH_SEA
 10
0.174047
 20
0.192995
 30
0
  0
VERTEX
  8
72_ARTEK_AKFURNITURE_D2_CH_SEA
 10
0.167103
 20
0.192123
 30
0
  0
VERTEX
  8
72_ARTEK_AKFURNITURE_D2_CH_SEA
 10
0.166536
 20
0.176156
 30
0
  0
VERTEX
  8
72_ARTEK_AKFURNITURE_D2_CH_SEA
 10
0.179447
 20
0.177555
 30
0
  0
VERTEX
  8
72_ARTEK_AKFURNITURE_D2_CH_SEA
 10
0.185728
 20
0.176746
 30
0
  0
VERTEX
  8
72_ARTEK_AKFURNITURE_D2_CH_SEA
 10
0.234625
 20
0.177514
 30
0
  0
VERTEX
  8
72_ARTEK_AKFURNITURE_D2_CH_SEA
 10
0.256347
 20
0.177514
 30
0
  0
SEQEND
  0
POLYLINE
  8
72_ARTEK_AKFURNITURE_D2_CH_SEA
 66
     1
 70
     0
 10
0.0
 20
0.0
 30
0.0
  0
VERTEX
  8
72_ARTEK_AKFURNITURE_D2_CH_SEA
 10
0.234077
 20
0.163292
 30
0
  0
VERTEX
  8
72_ARTEK_AKFURNITURE_D2_CH_SEA
 10
0.234625
 20
0.177514
 30
0
  0
VERTEX
  8
72_ARTEK_AKFURNITURE_D2_CH_SEA
 10
0.185728
 20
0.176746
 30
0
  0
VERTEX
  8
72_ARTEK_AKFURNITURE_D2_CH_SEA
 10
0.18518
 20
0.176817
 30
0
  0
VERTEX
  8
72_ARTEK_AKFURNITURE_D2_CH_SEA
 10
0.184637
 20
0.162547
 30
0
  0
VERTEX
  8
72_ARTEK_AKFURNITURE_D2_CH_SEA
 10
0.184559
 20
0.158108
 30
0
  0
VERTEX
  8
72_ARTEK_AKFURNITURE_D2_CH_SEA
 10
0.234068
 20
0.158853
 30
0
  0
VERTEX
  8
72_ARTEK_AKFURNITURE_D2_CH_SEA
 10
0.234077
 20
0.163292
 30
0
  0
SEQEND
  0
POLYLINE
  8
72_ARTEK_AKFURNITURE_D2_CH_SEA
 66
     1
 70
     0
 10
0.0
 20
0.0
 30
0.0
  0
VERTEX
  8
72_ARTEK_AKFURNITURE_D2_CH_SEA
 10
0.255798
 20
0.193419
 30
0
  0
VERTEX
  8
72_ARTEK_AKFURNITURE_D2_CH_SEA
 10
0.255363
 20
0.207228
 30
0
  0
VERTEX
  8
72_ARTEK_AKFURNITURE_D2_CH_SEA
 10
0.23561
 20
0.207228
 30
0
  0
VERTEX
  8
72_ARTEK_AKFURNITURE_D2_CH_SEA
 10
0.235166
 20
0.193093
 30
0
  0
VERTEX
  8
72_ARTEK_AKFURNITURE_D2_CH_SEA
 10
0.255798
 20
0.193419
 30
0
  0
SEQEND
  0
POLYLINE
  8
72_ARTEK_AKFURNITURE_D2_CH_SEA
 66
     1
 70
     0
 10
0.0
 20
0.0
 30
0.0
  0
VERTEX
  8
72_ARTEK_AKFURNITURE_D2_CH_SEA
 10
0.3247
 20
0.16663
 30
0
  0
VERTEX
  8
72_ARTEK_AKFURNITURE_D2_CH_SEA
 10
0.324437
 20
0.176156
 30
0
  0
VERTEX
  8
72_ARTEK_AKFURNITURE_D2_CH_SEA
 10
0.311525
 20
0.177555
 30
0
  0
VERTEX
  8
72_ARTEK_AKFURNITURE_D2_CH_SEA
 10
0.305244
 20
0.176746
 30
0
  0
VERTEX
  8
72_ARTEK_AKFURNITURE_D2_CH_SEA
 10
0.305244
 20
0.176805
 30
0
  0
VERTEX
  8
72_ARTEK_AKFURNITURE_D2_CH_SEA
 10
0.256347
 20
0.177514
 30
0
  0
VERTEX
  8
72_ARTEK_AKFURNITURE_D2_CH_SEA
 10
0.234625
 20
0.177514
 30
0
  0
VERTEX
  8
72_ARTEK_AKFURNITURE_D2_CH_SEA
 10
0.234222
 20
0.167059
 30
0
  0
VERTEX
  8
72_ARTEK_AKFURNITURE_D2_CH_SEA
 10
0.23443
 20
0.167061
 30
0
  0
VERTEX
  8
72_ARTEK_AKFURNITURE_D2_CH_SEA
 10
0.256832
 20
0.166536
 30
0
  0
VERTEX
  8
72_ARTEK_AKFURNITURE_D2_CH_SEA
 10
0.30618
 20
0.166644
 30
0
  0
VERTEX
  8
72_ARTEK_AKFURNITURE_D2_CH_SEA
 10
0.306179
 20
0.166652
 30
0
  0
VERTEX
  8
72_ARTEK_AKFURNITURE_D2_CH_SEA
 10
0.306564
 20
0.166645
 30
0
  0
VERTEX
  8
72_ARTEK_AKFURNITURE_D2_CH_SEA
 10
0.3247
 20
0.16663
 30
0
  0
SEQEND
  0
POLYLINE
  8
72_ARTEK_AKFURNITURE_D2_CH_SEA
 66
     1
 70
     0
 10
0.0
 20
0.0
 30
0.0
  0
VERTEX
  8
72_ARTEK_AKFURNITURE_D2_CH_SEA
 10
0.306336
 20
0.162547
 30
0
  0
VERTEX
  8
72_ARTEK_AKFURNITURE_D2_CH_SEA
 10
0.30618
 20
0.166644
 30
0
  0
VERTEX
  8
72_ARTEK_AKFURNITURE_D2_CH_SEA
 10
0.256832
 20
0.166536
 30
0
  0
VERTEX
  8
72_ARTEK_AKFURNITURE_D2_CH_SEA
 10
0.256904
 20
0.158853
 30
0
  0
VERTEX
  8
72_ARTEK_AKFURNITURE_D2_CH_SEA
 10
0.306414
 20
0.158108
 30
0
  0
VERTEX
  8
72_ARTEK_AKFURNITURE_D2_CH_SEA
 10
0.306336
 20
0.162547
 30
0
  0
SEQEND
  0
POLYLINE
  8
72_ARTEK_AKFURNITURE_D2_CH_SEA
 66
     1
 70
     0
 10
0.0
 20
0.0
 30
0.0
  0
VERTEX
  8
72_ARTEK_AKFURNITURE_D2_CH_SEA
 10
0.305244
 20
0.191492
 30
0
  0
VERTEX
  8
72_ARTEK_AKFURNITURE_D2_CH_SEA
 10
0.255838
 20
0.192271
 30
0
  0
VERTEX
  8
72_ARTEK_AKFURNITURE_D2_CH_SEA
 10
0.256347
 20
0.177514
 30
0
  0
VERTEX
  8
72_ARTEK_AKFURNITURE_D2_CH_SEA
 10
0.305244
 20
0.176805
 30
0
  0
VERTEX
  8
72_ARTEK_AKFURNITURE_D2_CH_SEA
 10
0.305244
 20
0.191492
 30
0
  0
SEQEND
  0
POLYLINE
  8
72_ARTEK_AKFURNITURE_D2_CH_SEA
 66
     1
 70
     0
 10
0.0
 20
0.0
 30
0.0
  0
VERTEX
  8
72_ARTEK_AKFURNITURE_D2_CH_SEA
 10
0.31212
 20
0.209529
 30
0
  0
VERTEX
  8
72_ARTEK_AKFURNITURE_D2_CH_SEA
 10
0.304671
 20
0.208238
 30
0
  0
VERTEX
  8
72_ARTEK_AKFURNITURE_D2_CH_SEA
 10
0.304731
 20
0.205713
 30
0
  0
VERTEX
  8
72_ARTEK_AKFURNITURE_D2_CH_SEA
 10
0.305139
 20
0.194413
 30
0
  0
VERTEX
  8
72_ARTEK_AKFURNITURE_D2_CH_SEA
 10
0.305647
 20
0.194413
 30
0
  0
VERTEX
  8
72_ARTEK_AKFURNITURE_D2_CH_SEA
 10
0.323968
 20
0.19211
 30
0
  0
VERTEX
  8
72_ARTEK_AKFURNITURE_D2_CH_SEA
 10
0.324041
 20
0.208031
 30
0
  0
VERTEX
  8
72_ARTEK_AKFURNITURE_D2_CH_SEA
 10
0.31212
 20
0.209529
 30
0
  0
SEQEND
  0
POLYLINE
  8
72_ARTEK_AKFURNITURE_D2_CH_SEA
 66
     1
 70
     0
 10
0.0
 20
0.0
 30
0.0
  0
VERTEX
  8
72_ARTEK_AKFURNITURE_D2_CH_SEA
 10
0.391808
 20
0.191052
 30
0
  0
VERTEX
  8
72_ARTEK_AKFURNITURE_D2_CH_SEA
 10
0.39151
 20
0.205385
 30
0
  0
VERTEX
  8
72_ARTEK_AKFURNITURE_D2_CH_SEA
 10
0.391215
 20
0.205411
 30
0
  0
VERTEX
  8
72_ARTEK_AKFURNITURE_D2_CH_SEA
 10
0.384193
 20
0.206611
 30
0
  0
VERTEX
  8
72_ARTEK_AKFURNITURE_D2_CH_SEA
 10
0.372722
 20
0.206069
 30
0
  0
VERTEX
  8
72_ARTEK_AKFURNITURE_D2_CH_SEA
 10
0.37265
 20
0.190149
 30
0
  0
VERTEX
  8
72_ARTEK_AKFURNITURE_D2_CH_SEA
 10
0.391804
 20
0.191052
 30
0
  0
VERTEX
  8
72_ARTEK_AKFURNITURE_D2_CH_SEA
 10
0.391808
 20
0.191052
 30
0
  0
SEQEND
  0
POLYLINE
  8
72_ARTEK_AKFURNITURE_D2_CH_SEA
 66
     1
 70
     0
 10
0.0
 20
0.0
 30
0.0
  0
VERTEX
  8
72_ARTEK_AKFURNITURE_D2_CH_SEA
 10
0.373952
 20
0.154311
 30
0
  0
VERTEX
  8
72_ARTEK_AKFURNITURE_D2_CH_SEA
 10
0.37382
 20
0.160813
 30
0
  0
VERTEX
  8
72_ARTEK_AKFURNITURE_D2_CH_SEA
 10
0.373283
 20
0.172048
 30
0
  0
VERTEX
  8
72_ARTEK_AKFURNITURE_D2_CH_SEA
 10
0.324437
 20
0.176156
 30
0
  0
VERTEX
  8
72_ARTEK_AKFURNITURE_D2_CH_SEA
 10
0.324788
 20
0.163455
 30
0
  0
VERTEX
  8
72_ARTEK_AKFURNITURE_D2_CH_SEA
 10
0.324843
 20
0.157264
 30
0
  0
VERTEX
  8
72_ARTEK_AKFURNITURE_D2_CH_SEA
 10
0.373952
 20
0.154311
 30
0
  0
SEQEND
  0
POLYLINE
  8
72_ARTEK_AKFURNITURE_D2_CH_SEA
 66
     1
 70
     0
 10
0.0
 20
0.0
 30
0.0
  0
VERTEX
  8
72_ARTEK_AKFURNITURE_D2_CH_SEA
 10
0.305244
 20
0.191492
 30
0
  0
VERTEX
  8
72_ARTEK_AKFURNITURE_D2_CH_SEA
 10
0.305244
 20
0.176805
 30
0
  0
VERTEX
  8
72_ARTEK_AKFURNITURE_D2_CH_SEA
 10
0.305655
 20
0.176799
 30
0
  0
VERTEX
  8
72_ARTEK_AKFURNITURE_D2_CH_SEA
 10
0.311525
 20
0.177555
 30
0
  0
VERTEX
  8
72_ARTEK_AKFURNITURE_D2_CH_SEA
 10
0.324437
 20
0.176156
 30
0
  0
VERTEX
  8
72_ARTEK_AKFURNITURE_D2_CH_SEA
 10
0.373283
 20
0.172048
 30
0
  0
VERTEX
  8
72_ARTEK_AKFURNITURE_D2_CH_SEA
 10
0.373216
 20
0.173454
 30
0
  0
VERTEX
  8
72_ARTEK_AKFURNITURE_D2_CH_SEA
 10
0.392487
 20
0.173365
 30
0
  0
VERTEX
  8
72_ARTEK_AKFURNITURE_D2_CH_SEA
 10
0.392539
 20
0.188098
 30
0
  0
VERTEX
  8
72_ARTEK_AKFURNITURE_D2_CH_SEA
 10
0.382227
 20
0.1906
 30
0
  0
VERTEX
  8
72_ARTEK_AKFURNITURE_D2_CH_SEA
 10
0.37265
 20
0.190149
 30
0
  0
VERTEX
  8
72_ARTEK_AKFURNITURE_D2_CH_SEA
 10
0.323968
 20
0.19211
 30
0
  0
VERTEX
  8
72_ARTEK_AKFURNITURE_D2_CH_SEA
 10
0.316925
 20
0.192995
 30
0
  0
VERTEX
  8
72_ARTEK_AKFURNITURE_D2_CH_SEA
 10
0.305244
 20
0.191492
 30
0
  0
SEQEND
  0
POLYLINE
  8
72_ARTEK_AKFURNITURE_D2_CH_SEA
 66
     1
 70
     0
 10
0.0
 20
0.0
 30
0.0
  0
VERTEX
  8
72_ARTEK_AKFURNITURE_D2_CH_SEA
 10
0.391375
 20
0.221937
 30
0
  0
VERTEX
  8
72_ARTEK_AKFURNITURE_D2_CH_SEA
 10
0.39138
 20
0.223041
 30
0
  0
VERTEX
  8
72_ARTEK_AKFURNITURE_D2_CH_SEA
 10
0.372138
 20
0.223577
 30
0
  0
VERTEX
  8
72_ARTEK_AKFURNITURE_D2_CH_SEA
 10
0.323121
 20
0.226727
 30
0
  0
VERTEX
  8
72_ARTEK_AKFURNITURE_D2_CH_SEA
 10
0.304276
 20
0.224786
 30
0
  0
VERTEX
  8
72_ARTEK_AKFURNITURE_D2_CH_SEA
 10
0.304671
 20
0.208238
 30
0
  0
VERTEX
  8
72_ARTEK_AKFURNITURE_D2_CH_SEA
 10
0.31212
 20
0.209529
 30
0
  0
VERTEX
  8
72_ARTEK_AKFURNITURE_D2_CH_SEA
 10
0.324041
 20
0.208031
 30
0
  0
VERTEX
  8
72_ARTEK_AKFURNITURE_D2_CH_SEA
 10
0.372722
 20
0.206069
 30
0
  0
VERTEX
  8
72_ARTEK_AKFURNITURE_D2_CH_SEA
 10
0.384193
 20
0.206611
 30
0
  0
VERTEX
  8
72_ARTEK_AKFURNITURE_D2_CH_SEA
 10
0.391215
 20
0.205411
 30
0
  0
SEQEND
  0
POLYLINE
  8
72_ARTEK_AKFURNITURE_D2_CH_SEA
 66
     1
 70
     0
 10
0.0
 20
0.0
 30
0.0
  0
VERTEX
  8
72_ARTEK_AKFURNITURE_D2_CH_SEA
 10
0.254776
 20
0.226993
 30
0
  0
VERTEX
  8
72_ARTEK_AKFURNITURE_D2_CH_SEA
 10
0.255309
 20
0.208935
 30
0
  0
VERTEX
  8
72_ARTEK_AKFURNITURE_D2_CH_SEA
 10
0.304398
 20
0.208191
 30
0
  0
VERTEX
  8
72_ARTEK_AKFURNITURE_D2_CH_SEA
 10
0.304671
 20
0.208238
 30
0
  0
VERTEX
  8
72_ARTEK_AKFURNITURE_D2_CH_SEA
 10
0.304242
 20
0.226229
 30
0
  0
VERTEX
  8
72_ARTEK_AKFURNITURE_D2_CH_SEA
 10
0.304174
 20
0.228755
 30
0
  0
VERTEX
  8
72_ARTEK_AKFURNITURE_D2_CH_SEA
 10
0.304233
 20
0.237462
 30
0
  0
VERTEX
  8
72_ARTEK_AKFURNITURE_D2_CH_SEA
 10
0.305184
 20
0.262675
 30
0
  0
VERTEX
  8
72_ARTEK_AKFURNITURE_D2_CH_SEA
 10
0.280135
 20
0.263392
 30
0
  0
VERTEX
  8
72_ARTEK_AKFURNITURE_D2_CH_SEA
 10
0.255057
 20
0.26335
 30
0
  0
VERTEX
  8
72_ARTEK_AKFURNITURE_D2_CH_SEA
 10
0.254717
 20
0.240165
 30
0
  0
VERTEX
  8
72_ARTEK_AKFURNITURE_D2_CH_SEA
 10
0.254705
 20
0.238121
 30
0
  0
VERTEX
  8
72_ARTEK_AKFURNITURE_D2_CH_SEA
 10
0.254712
 20
0.229412
 30
0
  0
VERTEX
  8
72_ARTEK_AKFURNITURE_D2_CH_SEA
 10
0.254776
 20
0.226993
 30
0
  0
SEQEND
  0
POLYLINE
  8
72_ARTEK_AKFURNITURE_D2_CH_SEA
 66
     1
 70
     0
 10
0.0
 20
0.0
 30
0.0
  0
VERTEX
  8
72_ARTEK_AKFURNITURE_D2_CH_SEA
 10
0.236158
 20
0.225567
 30
0
  0
VERTEX
  8
72_ARTEK_AKFURNITURE_D2_CH_SEA
 10
0.23626
 20
0.229412
 30
0
  0
VERTEX
  8
72_ARTEK_AKFURNITURE_D2_CH_SEA
 10
0.236267
 20
0.238121
 30
0
  0
VERTEX
  8
72_ARTEK_AKFURNITURE_D2_CH_SEA
 10
0.236256
 20
0.240165
 30
0
  0
VERTEX
  8
72_ARTEK_AKFURNITURE_D2_CH_SEA
 10
0.235915
 20
0.26335
 30
0
  0
VERTEX
  8
72_ARTEK_AKFURNITURE_D2_CH_SEA
 10
0.210838
 20
0.263392
 30
0
  0
VERTEX
  8
72_ARTEK_AKFURNITURE_D2_CH_SEA
 10
0.185788
 20
0.262675
 30
0
  0
VERTEX
  8
72_ARTEK_AKFURNITURE_D2_CH_SEA
 10
0.186739
 20
0.237462
 30
0
  0
VERTEX
  8
72_ARTEK_AKFURNITURE_D2_CH_SEA
 10
0.186798
 20
0.228755
 30
0
  0
VERTEX
  8
72_ARTEK_AKFURNITURE_D2_CH_SEA
 10
0.186693
 20
0.224812
 30
0
  0
VERTEX
  8
72_ARTEK_AKFURNITURE_D2_CH_SEA
 10
0.236072
 20
0.225561
 30
0
  0
VERTEX
  8
72_ARTEK_AKFURNITURE_D2_CH_SEA
 10
0.236158
 20
0.225567
 30
0
  0
SEQEND
  0
POLYLINE
  8
72_ARTEK_AKFURNITURE_D2_CH_SEA
 66
     1
 70
     0
 10
0.0
 20
0.0
 30
0.0
  0
VERTEX
  8
72_ARTEK_AKFURNITURE_D2_CH_SEA
 10
0.392487
 20
0.173365
 30
0
  0
VERTEX
  8
72_ARTEK_AKFURNITURE_D2_CH_SEA
 10
0.373216
 20
0.173454
 30
0
  0
VERTEX
  8
72_ARTEK_AKFURNITURE_D2_CH_SEA
 10
0.37382
 20
0.160813
 30
0
  0
VERTEX
  8
72_ARTEK_AKFURNITURE_D2_CH_SEA
 10
0.392867
 20
0.159415
 30
0
  0
VERTEX
  8
72_ARTEK_AKFURNITURE_D2_CH_SEA
 10
0.392487
 20
0.173365
 30
0
  0
SEQEND
  0
POLYLINE
  8
72_ARTEK_AKFURNITURE_D2_CH_SEA
 66
     1
 70
     0
 10
0.0
 20
0.0
 30
0.0
  0
VERTEX
  8
72_ARTEK_AKFURNITURE_D2_CH_SEA
 10
0.417588
 20
0.15056
 30
0
  0
VERTEX
  8
72_ARTEK_AKFURNITURE_D2_CH_SEA
 10
0.442156
 20
0.147656
 30
0
  0
VERTEX
  8
72_ARTEK_AKFURNITURE_D2_CH_SEA
 10
0.441822
 20
0.152113
 30
0
  0
VERTEX
  8
72_ARTEK_AKFURNITURE_D2_CH_SEA
 10
0.441797
 20
0.153207
 30
0
  0
VERTEX
  8
72_ARTEK_AKFURNITURE_D2_CH_SEA
 10
0.441509
 20
0.169608
 30
0
  0
VERTEX
  8
72_ARTEK_AKFURNITURE_D2_CH_SEA
 10
0.41685
 20
0.171494
 30
0
  0
VERTEX
  8
72_ARTEK_AKFURNITURE_D2_CH_SEA
 10
0.392487
 20
0.173365
 30
0
  0
VERTEX
  8
72_ARTEK_AKFURNITURE_D2_CH_SEA
 10
0.392927
 20
0.157214
 30
0
  0
VERTEX
  8
72_ARTEK_AKFURNITURE_D2_CH_SEA
 10
0.393195
 20
0.152764
 30
0
  0
VERTEX
  8
72_ARTEK_AKFURNITURE_D2_CH_SEA
 10
0.417588
 20
0.15056
 30
0
  0
SEQEND
  0
POLYLINE
  8
72_ARTEK_AKFURNITURE_D2_CH_SEA
 66
     1
 70
     0
 10
0.0
 20
0.0
 30
0.0
  0
VERTEX
  8
72_ARTEK_AKFURNITURE_D2_CH_SEA
 10
0.441509
 20
0.169608
 30
0
  0
VERTEX
  8
72_ARTEK_AKFURNITURE_D2_CH_SEA
 10
0.441509
 20
0.184354
 30
0
  0
VERTEX
  8
72_ARTEK_AKFURNITURE_D2_CH_SEA
 10
0.392539
 20
0.188098
 30
0
  0
VERTEX
  8
72_ARTEK_AKFURNITURE_D2_CH_SEA
 10
0.392487
 20
0.173365
 30
0
  0
VERTEX
  8
72_ARTEK_AKFURNITURE_D2_CH_SEA
 10
0.41685
 20
0.171494
 30
0
  0
VERTEX
  8
72_ARTEK_AKFURNITURE_D2_CH_SEA
 10
0.441509
 20
0.169608
 30
0
  0
SEQEND
  0
POLYLINE
  8
72_ARTEK_AKFURNITURE_D2_CH_SEA
 66
     1
 70
     0
 10
0.0
 20
0.0
 30
0.0
  0
VERTEX
  8
72_ARTEK_AKFURNITURE_D2_CH_SEA
 10
0.440483
 20
0.201058
 30
0
  0
VERTEX
  8
72_ARTEK_AKFURNITURE_D2_CH_SEA
 10
0.439605
 20
0.201171
 30
0
  0
VERTEX
  8
72_ARTEK_AKFURNITURE_D2_CH_SEA
 10
0.39151
 20
0.205385
 30
0
  0
VERTEX
  8
72_ARTEK_AKFURNITURE_D2_CH_SEA
 10
0.391866
 20
0.188261
 30
0
  0
VERTEX
  8
72_ARTEK_AKFURNITURE_D2_CH_SEA
 10
0.392539
 20
0.188098
 30
0
  0
VERTEX
  8
72_ARTEK_AKFURNITURE_D2_CH_SEA
 10
0.440968
 20
0.184395
 30
0
  0
VERTEX
  8
72_ARTEK_AKFURNITURE_D2_CH_SEA
 10
0.440483
 20
0.201058
 30
0
  0
SEQEND
  0
POLYLINE
  8
72_ARTEK_AKFURNITURE_D2_CH_SEA
 66
     1
 70
     0
 10
0.0
 20
0.0
 30
0.0
  0
VERTEX
  8
72_ARTEK_AKFURNITURE_D2_CH_SEA
 10
0.461514
 20
0.197909
 30
0
  0
VERTEX
  8
72_ARTEK_AKFURNITURE_D2_CH_SEA
 10
0.489486
 20
0.197909
 30
0
  0
VERTEX
  8
72_ARTEK_AKFURNITURE_D2_CH_SEA
 10
0.489486
 20
0.211659
 30
0
  0
VERTEX
  8
72_ARTEK_AKFURNITURE_D2_CH_SEA
 10
0.461514
 20
0.211659
 30
0
  0
VERTEX
  8
72_ARTEK_AKFURNITURE_D2_CH_SEA
 10
0.461514
 20
0.197909
 30
0
  0
SEQEND
  0
POLYLINE
  8
72_ARTEK_AKFURNITURE_D2_CH_SEA
 66
     1
 70
     0
 10
0.0
 20
0.0
 30
0.0
  0
VERTEX
  8
72_ARTEK_AKFURNITURE_D2_CH_SEA
 10
0.453793
 20
0.199064
 30
0
  0
VERTEX
  8
72_ARTEK_AKFURNITURE_D2_CH_SEA
 10
0.440483
 20
0.201058
 30
0
  0
VERTEX
  8
72_ARTEK_AKFURNITURE_D2_CH_SEA
 10
0.440801
 20
0.18832
 30
0
  0
VERTEX
  8
72_ARTEK_AKFURNITURE_D2_CH_SEA
 10
0.461515
 20
0.183122
 30
0
  0
VERTEX
  8
72_ARTEK_AKFURNITURE_D2_CH_SEA
 10
0.461515
 20
0.19713
 30
0
  0
VERTEX
  8
72_ARTEK_AKFURNITURE_D2_CH_SEA
 10
0.453793
 20
0.199064
 30
0
  0
SEQEND
  0
POLYLINE
  8
72_ARTEK_AKFURNITURE_D2_CH_SEA
 66
     1
 70
     0
 10
0.0
 20
0.0
 30
0.0
  0
VERTEX
  8
72_ARTEK_AKFURNITURE_D2_CH_SEA
 10
0.461515
 20
0.19713
 30
0
  0
VERTEX
  8
72_ARTEK_AKFURNITURE_D2_CH_SEA
 10
0.461515
 20
0.183122
 30
0
  0
VERTEX
  8
72_ARTEK_AKFURNITURE_D2_CH_SEA
 10
0.489485
 20
0.183122
 30
0
  0
VERTEX
  8
72_ARTEK_AKFURNITURE_D2_CH_SEA
 10
0.489485
 20
0.19713
 30
0
  0
VERTEX
  8
72_ARTEK_AKFURNITURE_D2_CH_SEA
 10
0.461515
 20
0.19713
 30
0
  0
SEQEND
  0
POLYLINE
  8
72_ARTEK_AKFURNITURE_D2_CH_SEA
 66
     1
 70
     0
 10
0.0
 20
0.0
 30
0.0
  0
VERTEX
  8
72_ARTEK_AKFURNITURE_D2_CH_SEA
 10
0.461516
 20
0.182102
 30
0
  0
VERTEX
  8
72_ARTEK_AKFURNITURE_D2_CH_SEA
 10
0.441509
 20
0.184354
 30
0
  0
VERTEX
  8
72_ARTEK_AKFURNITURE_D2_CH_SEA
 10
0.441509
 20
0.169608
 30
0
  0
VERTEX
  8
72_ARTEK_AKFURNITURE_D2_CH_SEA
 10
0.461516
 20
0.167357
 30
0
  0
VERTEX
  8
72_ARTEK_AKFURNITURE_D2_CH_SEA
 10
0.461516
 20
0.182102
 30
0
  0
SEQEND
  0
POLYLINE
  8
72_ARTEK_AKFURNITURE_D2_CH_SEA
 66
     1
 70
     0
 10
0.0
 20
0.0
 30
0.0
  0
VERTEX
  8
72_ARTEK_AKFURNITURE_D2_CH_SEA
 10
0.489484
 20
0.182102
 30
0
  0
VERTEX
  8
72_ARTEK_AKFURNITURE_D2_CH_SEA
 10
0.461516
 20
0.182102
 30
0
  0
VERTEX
  8
72_ARTEK_AKFURNITURE_D2_CH_SEA
 10
0.461516
 20
0.167357
 30
0
  0
VERTEX
  8
72_ARTEK_AKFURNITURE_D2_CH_SEA
 10
0.489484
 20
0.167357
 30
0
  0
VERTEX
  8
72_ARTEK_AKFURNITURE_D2_CH_SEA
 10
0.489484
 20
0.182102
 30
0
  0
SEQEND
  0
POLYLINE
  8
72_ARTEK_AKFURNITURE_D2_CH_SEA
 66
     1
 70
     0
 10
0.0
 20
0.0
 30
0.0
  0
VERTEX
  8
72_ARTEK_AKFURNITURE_D2_CH_SEA
 10
0.456017
 20
0.167976
 30
0
  0
VERTEX
  8
72_ARTEK_AKFURNITURE_D2_CH_SEA
 10
0.441509
 20
0.169608
 30
0
  0
VERTEX
  8
72_ARTEK_AKFURNITURE_D2_CH_SEA
 10
0.441677
 20
0.158393
 30
0
  0
VERTEX
  8
72_ARTEK_AKFURNITURE_D2_CH_SEA
 10
0.461517
 20
0.150838
 30
0
  0
VERTEX
  8
72_ARTEK_AKFURNITURE_D2_CH_SEA
 10
0.461517
 20
0.166107
 30
0
  0
VERTEX
  8
72_ARTEK_AKFURNITURE_D2_CH_SEA
 10
0.456017
 20
0.167976
 30
0
  0
SEQEND
  0
POLYLINE
  8
72_ARTEK_AKFURNITURE_D2_CH_SEA
 66
     1
 70
     0
 10
0.0
 20
0.0
 30
0.0
  0
VERTEX
  8
72_ARTEK_AKFURNITURE_D2_CH_SEA
 10
0.489483
 20
0.150838
 30
0
  0
VERTEX
  8
72_ARTEK_AKFURNITURE_D2_CH_SEA
 10
0.489483
 20
0.166107
 30
0
  0
VERTEX
  8
72_ARTEK_AKFURNITURE_D2_CH_SEA
 10
0.461517
 20
0.166107
 30
0
  0
VERTEX
  8
72_ARTEK_AKFURNITURE_D2_CH_SEA
 10
0.461517
 20
0.150838
 30
0
  0
VERTEX
  8
72_ARTEK_AKFURNITURE_D2_CH_SEA
 10
0.489483
 20
0.150838
 30
0
  0
SEQEND
  0
POLYLINE
  8
72_ARTEK_AKFURNITURE_D2_CH_SEA
 66
     1
 70
     0
 10
0.0
 20
0.0
 30
0.0
  0
VERTEX
  8
72_ARTEK_AKFURNITURE_D2_CH_SEA
 10
0.255309
 20
0.208935
 30
0
  0
VERTEX
  8
72_ARTEK_AKFURNITURE_D2_CH_SEA
 10
0.254761
 20
0.225571
 30
0
  0
VERTEX
  8
72_ARTEK_AKFURNITURE_D2_CH_SEA
 10
0.254818
 20
0.225567
 30
0
  0
VERTEX
  8
72_ARTEK_AKFURNITURE_D2_CH_SEA
 10
0.254776
 20
0.226993
 30
0
  0
VERTEX
  8
72_ARTEK_AKFURNITURE_D2_CH_SEA
 10
0.236215
 20
0.225571
 30
0
  0
VERTEX
  8
72_ARTEK_AKFURNITURE_D2_CH_SEA
 10
0.236158
 20
0.22557
 30
0
  0
VERTEX
  8
72_ARTEK_AKFURNITURE_D2_CH_SEA
 10
0.236158
 20
0.225567
 30
0
  0
VERTEX
  8
72_ARTEK_AKFURNITURE_D2_CH_SEA
 10
0.236072
 20
0.225561
 30
0
  0
VERTEX
  8
72_ARTEK_AKFURNITURE_D2_CH_SEA
 10
0.186471
 20
0.224809
 30
0
  0
VERTEX
  8
72_ARTEK_AKFURNITURE_D2_CH_SEA
 10
0.167851
 20
0.226727
 30
0
  0
VERTEX
  8
72_ARTEK_AKFURNITURE_D2_CH_SEA
 10
0.167855
 20
0.226466
 30
0
  0
VERTEX
  8
72_ARTEK_AKFURNITURE_D2_CH_SEA
 10
0.167429
 20
0.208093
 30
0
  0
VERTEX
  8
72_ARTEK_AKFURNITURE_D2_CH_SEA
 10
0.178853
 20
0.209529
 30
0
  0
VERTEX
  8
72_ARTEK_AKFURNITURE_D2_CH_SEA
 10
0.186453
 20
0.208212
 30
0
  0
VERTEX
  8
72_ARTEK_AKFURNITURE_D2_CH_SEA
 10
0.191343
 20
0.208264
 30
0
  0
VERTEX
  8
72_ARTEK_AKFURNITURE_D2_CH_SEA
 10
0.235664
 20
0.208935
 30
0
  0
VERTEX
  8
72_ARTEK_AKFURNITURE_D2_CH_SEA
 10
0.255309
 20
0.208935
 30
0
  0
SEQEND
  0
POLYLINE
  8
72_ARTEK_AKFURNITURE_D2_CH_SEA
 66
     1
 70
     0
 10
0.0
 20
0.0
 30
0.0
  0
VERTEX
  8
72_ARTEK_AKFURNITURE_D2_CH_SEA
 10
0.305244
 20
0.191492
 30
0
  0
VERTEX
  8
72_ARTEK_AKFURNITURE_D2_CH_SEA
 10
0.316925
 20
0.192995
 30
0
  0
VERTEX
  8
72_ARTEK_AKFURNITURE_D2_CH_SEA
 10
0.305647
 20
0.194413
 30
0
  0
VERTEX
  8
72_ARTEK_AKFURNITURE_D2_CH_SEA
 10
0.305139
 20
0.194413
 30
0
  0
VERTEX
  8
72_ARTEK_AKFURNITURE_D2_CH_SEA
 10
0.304731
 20
0.205713
 30
0
  0
VERTEX
  8
72_ARTEK_AKFURNITURE_D2_CH_SEA
 10
0.304671
 20
0.208238
 30
0
  0
VERTEX
  8
72_ARTEK_AKFURNITURE_D2_CH_SEA
 10
0.304398
 20
0.208191
 30
0
  0
VERTEX
  8
72_ARTEK_AKFURNITURE_D2_CH_SEA
 10
0.255309
 20
0.208935
 30
0
  0
VERTEX
  8
72_ARTEK_AKFURNITURE_D2_CH_SEA
 10
0.255798
 20
0.193419
 30
0
  0
VERTEX
  8
72_ARTEK_AKFURNITURE_D2_CH_SEA
 10
0.255838
 20
0.192271
 30
0
  0
VERTEX
  8
72_ARTEK_AKFURNITURE_D2_CH_SEA
 10
0.305244
 20
0.191492
 30
0
  0
SEQEND
  0
POLYLINE
  8
72_ARTEK_AKFURNITURE_D2_CH_SEA
 66
     1
 70
     0
 10
0.0
 20
0.0
 30
0.0
  0
VERTEX
  8
72_ARTEK_AKFURNITURE_D2_CH_SEA
 10
0.37265
 20
0.190149
 30
0
  0
VERTEX
  8
72_ARTEK_AKFURNITURE_D2_CH_SEA
 10
0.372722
 20
0.206069
 30
0
  0
VERTEX
  8
72_ARTEK_AKFURNITURE_D2_CH_SEA
 10
0.324041
 20
0.208031
 30
0
  0
VERTEX
  8
72_ARTEK_AKFURNITURE_D2_CH_SEA
 10
0.323968
 20
0.19211
 30
0
  0
VERTEX
  8
72_ARTEK_AKFURNITURE_D2_CH_SEA
 10
0.37265
 20
0.190149
 30
0
  0
SEQEND
  0
POLYLINE
  8
72_ARTEK_AKFURNITURE_D2_CH_SEA
 66
     1
 70
     0
 10
0.0
 20
0.0
 30
0.0
  0
VERTEX
  8
72_ARTEK_AKFURNITURE_D2_CH_SEA
 10
0.0501074
 20
0.188173
 30
0
  0
VERTEX
  8
72_ARTEK_AKFURNITURE_D2_CH_SEA
 10
0.0504893
 20
0.200457
 30
0
  0
VERTEX
  8
72_ARTEK_AKFURNITURE_D2_CH_SEA
 10
0.0294853
 20
0.19713
 30
0
  0
VERTEX
  8
72_ARTEK_AKFURNITURE_D2_CH_SEA
 10
0.0294853
 20
0.196755
 30
0
  0
VERTEX
  8
72_ARTEK_AKFURNITURE_D2_CH_SEA
 10
0.0294854
 20
0.183122
 30
0
  0
VERTEX
  8
72_ARTEK_AKFURNITURE_D2_CH_SEA
 10
0.0501074
 20
0.188173
 30
0
  0
SEQEND
  0
POLYLINE
  8
72_ARTEK_AKFURNITURE_D2_CH_SEA
 66
     1
 70
     0
 10
0.0
 20
0.0
 30
0.0
  0
VERTEX
  8
72_ARTEK_AKFURNITURE_D2_CH_SEA
 10
0.112986
 20
-0.155191
 30
0
  0
VERTEX
  8
72_ARTEK_AKFURNITURE_D2_CH_SEA
 10
0.0629862
 20
-0.155191
 30
0
  0
VERTEX
  8
72_ARTEK_AKFURNITURE_D2_CH_SEA
 10
0.0629862
 20
-0.256208
 30
0
  0
VERTEX
  8
72_ARTEK_AKFURNITURE_D2_CH_SEA
 10
0.112986
 20
-0.256208
 30
0
  0
VERTEX
  8
72_ARTEK_AKFURNITURE_D2_CH_SEA
 10
0.112986
 20
-0.155191
 30
0
  0
SEQEND
  0
POLYLINE
  8
72_ARTEK_AKFURNITURE_D2_CH_SEA
 66
     1
 70
     0
 10
0.0
 20
0.0
 30
0.0
  0
VERTEX
  8
72_ARTEK_AKFURNITURE_D2_CH_SEA
 10
0.125986
 20
-0.211352
 30
0
  0
VERTEX
  8
72_ARTEK_AKFURNITURE_D2_CH_SEA
 10
0.125986
 20
-0.256208
 30
0
  0
VERTEX
  8
72_ARTEK_AKFURNITURE_D2_CH_SEA
 10
0.175986
 20
-0.256208
 30
0
  0
VERTEX
  8
72_ARTEK_AKFURNITURE_D2_CH_SEA
 10
0.175966
 20
-0.211352
 30
0
  0
VERTEX
  8
72_ARTEK_AKFURNITURE_D2_CH_SEA
 10
0.125986
 20
-0.211352
 30
0
  0
SEQEND
  0
POLYLINE
  8
72_ARTEK_AKFURNITURE_D2_CH_SEA
 66
     1
 70
     0
 10
0.0
 20
0.0
 30
0.0
  0
VERTEX
  8
72_ARTEK_AKFURNITURE_D2_CH_SEA
 10
0.188986
 20
-0.155191
 30
0
  0
VERTEX
  8
72_ARTEK_AKFURNITURE_D2_CH_SEA
 10
0.188986
 20
-0.256208
 30
0
  0
VERTEX
  8
72_ARTEK_AKFURNITURE_D2_CH_SEA
 10
0.238986
 20
-0.256208
 30
0
  0
VERTEX
  8
72_ARTEK_AKFURNITURE_D2_CH_SEA
 10
0.238986
 20
-0.155191
 30
0
  0
VERTEX
  8
72_ARTEK_AKFURNITURE_D2_CH_SEA
 10
0.188986
 20
-0.155191
 30
0
  0
SEQEND
  0
POLYLINE
  8
72_ARTEK_AKFURNITURE_D2_CH_SEA
 66
     1
 70
     0
 10
0.0
 20
0.0
 30
0.0
  0
VERTEX
  8
72_ARTEK_AKFURNITURE_D2_CH_SEA
 10
0.251986
 20
-0.211352
 30
0
  0
VERTEX
  8
72_ARTEK_AKFURNITURE_D2_CH_SEA
 10
0.251986
 20
-0.256208
 30
0
  0
VERTEX
  8
72_ARTEK_AKFURNITURE_D2_CH_SEA
 10
0.301986
 20
-0.256208
 30
0
  0
VERTEX
  8
72_ARTEK_AKFURNITURE_D2_CH_SEA
 10
0.301986
 20
-0.211352
 30
0
  0
VERTEX
  8
72_ARTEK_AKFURNITURE_D2_CH_SEA
 10
0.251986
 20
-0.211352
 30
0
  0
SEQEND
  0
POLYLINE
  8
72_ARTEK_AKFURNITURE_D2_CH_SEA
 66
     1
 70
     0
 10
0.0
 20
0.0
 30
0.0
  0
VERTEX
  8
72_ARTEK_AKFURNITURE_D2_CH_SEA
 10
0.427986
 20
-0.256208
 30
0
  0
VERTEX
  8
72_ARTEK_AKFURNITURE_D2_CH_SEA
 10
0.427986
 20
-0.211352
 30
0
  0
VERTEX
  8
72_ARTEK_AKFURNITURE_D2_CH_SEA
 10
0.377986
 20
-0.211352
 30
0
  0
VERTEX
  8
72_ARTEK_AKFURNITURE_D2_CH_SEA
 10
0.377986
 20
-0.256208
 30
0
  0
VERTEX
  8
72_ARTEK_AKFURNITURE_D2_CH_SEA
 10
0.427986
 20
-0.256208
 30
0
  0
SEQEND
  0
POLYLINE
  8
72_ARTEK_AKFURNITURE_D2_CH_SEA
 66
     1
 70
     0
 10
0.0
 20
0.0
 30
0.0
  0
VERTEX
  8
72_ARTEK_AKFURNITURE_D2_CH_SEA
 10
0.463486
 20
-0.161242
 30
0
  0
VERTEX
  8
72_ARTEK_AKFURNITURE_D2_CH_SEA
 10
0.364986
 20
-0.161242
 30
0
  0
VERTEX
  8
72_ARTEK_AKFURNITURE_D2_CH_SEA
 10
0.364986
 20
-0.211352
 30
0
  0
VERTEX
  8
72_ARTEK_AKFURNITURE_D2_CH_SEA
 10
0.463486
 20
-0.211352
 30
0
  0
VERTEX
  8
72_ARTEK_AKFURNITURE_D2_CH_SEA
 10
0.463486
 20
-0.161242
 30
0
  0
SEQEND
  0
POLYLINE
  8
72_ARTEK_AKFURNITURE_D2_CH_SEA
 66
     1
 70
     0
 10
0.0
 20
0.0
 30
0.0
  0
VERTEX
  8
72_ARTEK_AKFURNITURE_D2_CH_SEA
 10
0.314986
 20
-0.161242
 30
0
  0
VERTEX
  8
72_ARTEK_AKFURNITURE_D2_CH_SEA
 10
0.238986
 20
-0.161242
 30
0
  0
VERTEX
  8
72_ARTEK_AKFURNITURE_D2_CH_SEA
 10
0.238986
 20
-0.211352
 30
0
  0
VERTEX
  8
72_ARTEK_AKFURNITURE_D2_CH_SEA
 10
0.314986
 20
-0.211352
 30
0
  0
VERTEX
  8
72_ARTEK_AKFURNITURE_D2_CH_SEA
 10
0.314986
 20
-0.161242
 30
0
  0
SEQEND
  0
POLYLINE
  8
72_ARTEK_AKFURNITURE_D2_CH_SEA
 66
     1
 70
     0
 10
0.0
 20
0.0
 30
0.0
  0
VERTEX
  8
72_ARTEK_AKFURNITURE_D2_CH_SEA
 10
0.188986
 20
-0.161242
 30
0
  0
VERTEX
  8
72_ARTEK_AKFURNITURE_D2_CH_SEA
 10
0.112986
 20
-0.161242
 30
0
  0
VERTEX
  8
72_ARTEK_AKFURNITURE_D2_CH_SEA
 10
0.112986
 20
-0.211352
 30
0
  0
VERTEX
  8
72_ARTEK_AKFURNITURE_D2_CH_SEA
 10
0.188986
 20
-0.211352
 30
0
  0
VERTEX
  8
72_ARTEK_AKFURNITURE_D2_CH_SEA
 10
0.188986
 20
-0.161242
 30
0
  0
SEQEND
  0
POLYLINE
  8
72_ARTEK_AKFURNITURE_D2_CH_SEA
 66
     1
 70
     0
 10
0.0
 20
0.0
 30
0.0
  0
VERTEX
  8
72_ARTEK_AKFURNITURE_D2_CH_SEA
 10
0.0274862
 20
-0.211352
 30
0
  0
VERTEX
  8
72_ARTEK_AKFURNITURE_D2_CH_SEA
 10
0.0629862
 20
-0.211352
 30
0
  0
VERTEX
  8
72_ARTEK_AKFURNITURE_D2_CH_SEA
 10
0.0629862
 20
-0.161242
 30
0
  0
VERTEX
  8
72_ARTEK_AKFURNITURE_D2_CH_SEA
 10
0.0274862
 20
-0.161242
 30
0
  0
VERTEX
  8
72_ARTEK_AKFURNITURE_D2_CH_SEA
 10
0.0274862
 20
-0.211352
 30
0
  0
SEQEND
  0
POLYLINE
  8
72_ARTEK_AKFURNITURE_D2_CH_SEA
 66
     1
 70
     0
 10
0.0
 20
0.0
 30
0.0
  0
VERTEX
  8
72_ARTEK_AKFURNITURE_D2_CH_SEA
 10
0.0274862
 20
-0.155191
 30
0
  0
VERTEX
  8
72_ARTEK_AKFURNITURE_D2_CH_SEA
 10
0.125986
 20
-0.155191
 30
0
  0
VERTEX
  8
72_ARTEK_AKFURNITURE_D2_CH_SEA
 10
0.125986
 20
-0.104902
 30
0
  0
VERTEX
  8
72_ARTEK_AKFURNITURE_D2_CH_SEA
 10
0.0274862
 20
-0.104902
 30
0
  0
VERTEX
  8
72_ARTEK_AKFURNITURE_D2_CH_SEA
 10
0.0274862
 20
-0.155191
 30
0
  0
SEQEND
  0
POLYLINE
  8
72_ARTEK_AKFURNITURE_D2_CH_SEA
 66
     1
 70
     0
 10
0.0
 20
0.0
 30
0.0
  0
VERTEX
  8
72_ARTEK_AKFURNITURE_D2_CH_SEA
 10
0.175944
 20
-0.161242
 30
0
  0
VERTEX
  8
72_ARTEK_AKFURNITURE_D2_CH_SEA
 10
0.175916
 20
-0.099189
 30
0
  0
VERTEX
  8
72_ARTEK_AKFURNITURE_D2_CH_SEA
 10
0.125986
 20
-0.099189
 30
0
  0
VERTEX
  8
72_ARTEK_AKFURNITURE_D2_CH_SEA
 10
0.125986
 20
-0.161242
 30
0
  0
VERTEX
  8
72_ARTEK_AKFURNITURE_D2_CH_SEA
 10
0.175944
 20
-0.161242
 30
0
  0
SEQEND
  0
POLYLINE
  8
72_ARTEK_AKFURNITURE_D2_CH_SEA
 66
     1
 70
     0
 10
0.0
 20
0.0
 30
0.0
  0
VERTEX
  8
72_ARTEK_AKFURNITURE_D2_CH_SEA
 10
0.251986
 20
-0.155191
 30
0
  0
VERTEX
  8
72_ARTEK_AKFURNITURE_D2_CH_SEA
 10
0.251986
 20
-0.104902
 30
0
  0
VERTEX
  8
72_ARTEK_AKFURNITURE_D2_CH_SEA
 10
0.175919
 20
-0.104902
 30
0
  0
VERTEX
  8
72_ARTEK_AKFURNITURE_D2_CH_SEA
 10
0.175941
 20
-0.155191
 30
0
  0
VERTEX
  8
72_ARTEK_AKFURNITURE_D2_CH_SEA
 10
0.251986
 20
-0.155191
 30
0
  0
SEQEND
  0
POLYLINE
  8
72_ARTEK_AKFURNITURE_D2_CH_SEA
 66
     1
 70
     0
 10
0.0
 20
0.0
 30
0.0
  0
VERTEX
  8
72_ARTEK_AKFURNITURE_D2_CH_SEA
 10
0.251986
 20
-0.099189
 30
0
  0
VERTEX
  8
72_ARTEK_AKFURNITURE_D2_CH_SEA
 10
0.251986
 20
-0.161242
 30
0
  0
VERTEX
  8
72_ARTEK_AKFURNITURE_D2_CH_SEA
 10
0.301986
 20
-0.161242
 30
0
  0
VERTEX
  8
72_ARTEK_AKFURNITURE_D2_CH_SEA
 10
0.301986
 20
-0.099189
 30
0
  0
VERTEX
  8
72_ARTEK_AKFURNITURE_D2_CH_SEA
 10
0.251986
 20
-0.099189
 30
0
  0
SEQEND
  0
POLYLINE
  8
72_ARTEK_AKFURNITURE_D2_CH_SEA
 66
     1
 70
     0
 10
0.0
 20
0.0
 30
0.0
  0
VERTEX
  8
72_ARTEK_AKFURNITURE_D2_CH_SEA
 10
0.301986
 20
-0.155191
 30
0
  0
VERTEX
  8
72_ARTEK_AKFURNITURE_D2_CH_SEA
 10
0.377986
 20
-0.155191
 30
0
  0
VERTEX
  8
72_ARTEK_AKFURNITURE_D2_CH_SEA
 10
0.377986
 20
-0.104902
 30
0
  0
VERTEX
  8
72_ARTEK_AKFURNITURE_D2_CH_SEA
 10
0.301986
 20
-0.104902
 30
0
  0
VERTEX
  8
72_ARTEK_AKFURNITURE_D2_CH_SEA
 10
0.301986
 20
-0.155191
 30
0
  0
SEQEND
  0
POLYLINE
  8
72_ARTEK_AKFURNITURE_D2_CH_SEA
 66
     1
 70
     0
 10
0.0
 20
0.0
 30
0.0
  0
VERTEX
  8
72_ARTEK_AKFURNITURE_D2_CH_SEA
 10
0.427986
 20
-0.099189
 30
0
  0
VERTEX
  8
72_ARTEK_AKFURNITURE_D2_CH_SEA
 10
0.377986
 20
-0.099189
 30
0
  0
VERTEX
  8
72_ARTEK_AKFURNITURE_D2_CH_SEA
 10
0.377986
 20
-0.161242
 30
0
  0
VERTEX
  8
72_ARTEK_AKFURNITURE_D2_CH_SEA
 10
0.427986
 20
-0.161242
 30
0
  0
VERTEX
  8
72_ARTEK_AKFURNITURE_D2_CH_SEA
 10
0.427986
 20
-0.099189
 30
0
  0
SEQEND
  0
POLYLINE
  8
72_ARTEK_AKFURNITURE_D2_CH_SEA
 66
     1
 70
     0
 10
0.0
 20
0.0
 30
0.0
  0
VERTEX
  8
72_ARTEK_AKFURNITURE_D2_CH_SEA
 10
0.427986
 20
-0.104902
 30
0
  0
VERTEX
  8
72_ARTEK_AKFURNITURE_D2_CH_SEA
 10
0.427986
 20
-0.155191
 30
0
  0
VERTEX
  8
72_ARTEK_AKFURNITURE_D2_CH_SEA
 10
0.463486
 20
-0.155191
 30
0
  0
VERTEX
  8
72_ARTEK_AKFURNITURE_D2_CH_SEA
 10
0.463486
 20
-0.104902
 30
0
  0
VERTEX
  8
72_ARTEK_AKFURNITURE_D2_CH_SEA
 10
0.427986
 20
-0.104902
 30
0
  0
SEQEND
  0
POLYLINE
  8
72_ARTEK_AKFURNITURE_D2_CH_SEA
 66
     1
 70
     0
 10
0.0
 20
0.0
 30
0.0
  0
VERTEX
  8
72_ARTEK_AKFURNITURE_D2_CH_SEA
 10
0.364986
 20
-0.0488244
 30
0
  0
VERTEX
  8
72_ARTEK_AKFURNITURE_D2_CH_SEA
 10
0.364986
 20
-0.099189
 30
0
  0
VERTEX
  8
72_ARTEK_AKFURNITURE_D2_CH_SEA
 10
0.463486
 20
-0.099189
 30
0
  0
VERTEX
  8
72_ARTEK_AKFURNITURE_D2_CH_SEA
 10
0.463486
 20
-0.0488244
 30
0
  0
VERTEX
  8
72_ARTEK_AKFURNITURE_D2_CH_SEA
 10
0.364986
 20
-0.0488244
 30
0
  0
SEQEND
  0
POLYLINE
  8
72_ARTEK_AKFURNITURE_D2_CH_SEA
 66
     1
 70
     0
 10
0.0
 20
0.0
 30
0.0
  0
VERTEX
  8
72_ARTEK_AKFURNITURE_D2_CH_SEA
 10
0.314986
 20
-0.0425011
 30
0
  0
VERTEX
  8
72_ARTEK_AKFURNITURE_D2_CH_SEA
 10
0.314986
 20
-0.104902
 30
0
  0
VERTEX
  8
72_ARTEK_AKFURNITURE_D2_CH_SEA
 10
0.364986
 20
-0.104902
 30
0
  0
VERTEX
  8
72_ARTEK_AKFURNITURE_D2_CH_SEA
 10
0.364986
 20
-0.0425011
 30
0
  0
VERTEX
  8
72_ARTEK_AKFURNITURE_D2_CH_SEA
 10
0.314986
 20
-0.0425011
 30
0
  0
SEQEND
  0
POLYLINE
  8
72_ARTEK_AKFURNITURE_D2_CH_SEA
 66
     1
 70
     0
 10
0.0
 20
0.0
 30
0.0
  0
VERTEX
  8
72_ARTEK_AKFURNITURE_D2_CH_SEA
 10
0.238986
 20
-0.0488244
 30
0
  0
VERTEX
  8
72_ARTEK_AKFURNITURE_D2_CH_SEA
 10
0.238986
 20
-0.099189
 30
0
  0
VERTEX
  8
72_ARTEK_AKFURNITURE_D2_CH_SEA
 10
0.314986
 20
-0.099189
 30
0
  0
VERTEX
  8
72_ARTEK_AKFURNITURE_D2_CH_SEA
 10
0.314986
 20
-0.0488244
 30
0
  0
VERTEX
  8
72_ARTEK_AKFURNITURE_D2_CH_SEA
 10
0.238986
 20
-0.0488244
 30
0
  0
SEQEND
  0
POLYLINE
  8
72_ARTEK_AKFURNITURE_D2_CH_SEA
 66
     1
 70
     0
 10
0.0
 20
0.0
 30
0.0
  0
VERTEX
  8
72_ARTEK_AKFURNITURE_D2_CH_SEA
 10
0.238986
 20
-0.0425011
 30
0
  0
VERTEX
  8
72_ARTEK_AKFURNITURE_D2_CH_SEA
 10
0.188986
 20
-0.0425011
 30
0
  0
VERTEX
  8
72_ARTEK_AKFURNITURE_D2_CH_SEA
 10
0.188986
 20
-0.104902
 30
0
  0
VERTEX
  8
72_ARTEK_AKFURNITURE_D2_CH_SEA
 10
0.238986
 20
-0.104902
 30
0
  0
VERTEX
  8
72_ARTEK_AKFURNITURE_D2_CH_SEA
 10
0.238986
 20
-0.0425011
 30
0
  0
SEQEND
  0
POLYLINE
  8
72_ARTEK_AKFURNITURE_D2_CH_SEA
 66
     1
 70
     0
 10
0.0
 20
0.0
 30
0.0
  0
VERTEX
  8
72_ARTEK_AKFURNITURE_D2_CH_SEA
 10
0.112986
 20
-0.0488244
 30
0
  0
VERTEX
  8
72_ARTEK_AKFURNITURE_D2_CH_SEA
 10
0.112986
 20
-0.099189
 30
0
  0
VERTEX
  8
72_ARTEK_AKFURNITURE_D2_CH_SEA
 10
0.188986
 20
-0.099189
 30
0
  0
VERTEX
  8
72_ARTEK_AKFURNITURE_D2_CH_SEA
 10
0.188986
 20
-0.0488244
 30
0
  0
VERTEX
  8
72_ARTEK_AKFURNITURE_D2_CH_SEA
 10
0.112986
 20
-0.0488244
 30
0
  0
SEQEND
  0
POLYLINE
  8
72_ARTEK_AKFURNITURE_D2_CH_SEA
 66
     1
 70
     0
 10
0.0
 20
0.0
 30
0.0
  0
VERTEX
  8
72_ARTEK_AKFURNITURE_D2_CH_SEA
 10
0.112986
 20
-0.0425011
 30
0
  0
VERTEX
  8
72_ARTEK_AKFURNITURE_D2_CH_SEA
 10
0.0629862
 20
-0.0425011
 30
0
  0
VERTEX
  8
72_ARTEK_AKFURNITURE_D2_CH_SEA
 10
0.0629862
 20
-0.104902
 30
0
  0
VERTEX
  8
72_ARTEK_AKFURNITURE_D2_CH_SEA
 10
0.112986
 20
-0.104902
 30
0
  0
VERTEX
  8
72_ARTEK_AKFURNITURE_D2_CH_SEA
 10
0.112986
 20
-0.0425011
 30
0
  0
SEQEND
  0
POLYLINE
  8
72_ARTEK_AKFURNITURE_D2_CH_SEA
 66
     1
 70
     0
 10
0.0
 20
0.0
 30
0.0
  0
VERTEX
  8
72_ARTEK_AKFURNITURE_D2_CH_SEA
 10
0.0629862
 20
-0.0488244
 30
0
  0
VERTEX
  8
72_ARTEK_AKFURNITURE_D2_CH_SEA
 10
0.0274862
 20
-0.0488244
 30
0
  0
VERTEX
  8
72_ARTEK_AKFURNITURE_D2_CH_SEA
 10
0.0274862
 20
-0.099189
 30
0
  0
VERTEX
  8
72_ARTEK_AKFURNITURE_D2_CH_SEA
 10
0.0629862
 20
-0.099189
 30
0
  0
VERTEX
  8
72_ARTEK_AKFURNITURE_D2_CH_SEA
 10
0.0629862
 20
-0.0488244
 30
0
  0
SEQEND
  0
POLYLINE
  8
72_ARTEK_AKFURNITURE_D2_CH_SEA
 66
     1
 70
     0
 10
0.0
 20
0.0
 30
0.0
  0
VERTEX
  8
72_ARTEK_AKFURNITURE_D2_CH_SEA
 10
0.125986
 20
0.0074268
 30
0
  0
VERTEX
  8
72_ARTEK_AKFURNITURE_D2_CH_SEA
 10
0.0274862
 20
0.0074268
 30
0
  0
VERTEX
  8
72_ARTEK_AKFURNITURE_D2_CH_SEA
 10
0.0274862
 20
-0.0425011
 30
0
  0
VERTEX
  8
72_ARTEK_AKFURNITURE_D2_CH_SEA
 10
0.125986
 20
-0.0425011
 30
0
  0
VERTEX
  8
72_ARTEK_AKFURNITURE_D2_CH_SEA
 10
0.125986
 20
0.0074268
 30
0
  0
SEQEND
  0
POLYLINE
  8
72_ARTEK_AKFURNITURE_D2_CH_SEA
 66
     1
 70
     0
 10
0.0
 20
0.0
 30
0.0
  0
VERTEX
  8
72_ARTEK_AKFURNITURE_D2_CH_SEA
 10
0.175866
 20
0.0132249
 30
0
  0
VERTEX
  8
72_ARTEK_AKFURNITURE_D2_CH_SEA
 10
0.125986
 20
0.0132249
 30
0
  0
VERTEX
  8
72_ARTEK_AKFURNITURE_D2_CH_SEA
 10
0.125986
 20
-0.0488244
 30
0
  0
VERTEX
  8
72_ARTEK_AKFURNITURE_D2_CH_SEA
 10
0.175894
 20
-0.0488244
 30
0
  0
VERTEX
  8
72_ARTEK_AKFURNITURE_D2_CH_SEA
 10
0.175866
 20
0.0132249
 30
0
  0
SEQEND
  0
POLYLINE
  8
72_ARTEK_AKFURNITURE_D2_CH_SEA
 66
     1
 70
     0
 10
0.0
 20
0.0
 30
0.0
  0
VERTEX
  8
72_ARTEK_AKFURNITURE_D2_CH_SEA
 10
0.251986
 20
0.0074268
 30
0
  0
VERTEX
  8
72_ARTEK_AKFURNITURE_D2_CH_SEA
 10
0.175869
 20
0.0074268
 30
0
  0
VERTEX
  8
72_ARTEK_AKFURNITURE_D2_CH_SEA
 10
0.175891
 20
-0.0425011
 30
0
  0
VERTEX
  8
72_ARTEK_AKFURNITURE_D2_CH_SEA
 10
0.251986
 20
-0.0425011
 30
0
  0
VERTEX
  8
72_ARTEK_AKFURNITURE_D2_CH_SEA
 10
0.251986
 20
0.0074268
 30
0
  0
SEQEND
  0
POLYLINE
  8
72_ARTEK_AKFURNITURE_D2_CH_SEA
 66
     1
 70
     0
 10
0.0
 20
0.0
 30
0.0
  0
VERTEX
  8
72_ARTEK_AKFURNITURE_D2_CH_SEA
 10
0.301986
 20
-0.0488244
 30
0
  0
VERTEX
  8
72_ARTEK_AKFURNITURE_D2_CH_SEA
 10
0.301986
 20
0.0132249
 30
0
  0
VERTEX
  8
72_ARTEK_AKFURNITURE_D2_CH_SEA
 10
0.251986
 20
0.0132249
 30
0
  0
VERTEX
  8
72_ARTEK_AKFURNITURE_D2_CH_SEA
 10
0.251986
 20
-0.0488244
 30
0
  0
VERTEX
  8
72_ARTEK_AKFURNITURE_D2_CH_SEA
 10
0.301986
 20
-0.0488244
 30
0
  0
SEQEND
  0
POLYLINE
  8
72_ARTEK_AKFURNITURE_D2_CH_SEA
 66
     1
 70
     0
 10
0.0
 20
0.0
 30
0.0
  0
VERTEX
  8
72_ARTEK_AKFURNITURE_D2_CH_SEA
 10
0.301986
 20
-0.0425011
 30
0
  0
VERTEX
  8
72_ARTEK_AKFURNITURE_D2_CH_SEA
 10
0.377986
 20
-0.0425011
 30
0
  0
VERTEX
  8
72_ARTEK_AKFURNITURE_D2_CH_SEA
 10
0.377986
 20
0.0074268
 30
0
  0
VERTEX
  8
72_ARTEK_AKFURNITURE_D2_CH_SEA
 10
0.301986
 20
0.0074268
 30
0
  0
VERTEX
  8
72_ARTEK_AKFURNITURE_D2_CH_SEA
 10
0.301986
 20
-0.0425011
 30
0
  0
SEQEND
  0
POLYLINE
  8
72_ARTEK_AKFURNITURE_D2_CH_SEA
 66
     1
 70
     0
 10
0.0
 20
0.0
 30
0.0
  0
VERTEX
  8
72_ARTEK_AKFURNITURE_D2_CH_SEA
 10
0.427986
 20
0.0132249
 30
0
  0
VERTEX
  8
72_ARTEK_AKFURNITURE_D2_CH_SEA
 10
0.377986
 20
0.0132249
 30
0
  0
VERTEX
  8
72_ARTEK_AKFURNITURE_D2_CH_SEA
 10
0.377986
 20
-0.0488244
 30
0
  0
VERTEX
  8
72_ARTEK_AKFURNITURE_D2_CH_SEA
 10
0.427986
 20
-0.0488244
 30
0
  0
VERTEX
  8
72_ARTEK_AKFURNITURE_D2_CH_SEA
 10
0.427986
 20
0.0132249
 30
0
  0
SEQEND
  0
POLYLINE
  8
72_ARTEK_AKFURNITURE_D2_CH_SEA
 66
     1
 70
     0
 10
0.0
 20
0.0
 30
0.0
  0
VERTEX
  8
72_ARTEK_AKFURNITURE_D2_CH_SEA
 10
0.427986
 20
0.0074268
 30
0
  0
VERTEX
  8
72_ARTEK_AKFURNITURE_D2_CH_SEA
 10
0.427986
 20
-0.0425011
 30
0
  0
VERTEX
  8
72_ARTEK_AKFURNITURE_D2_CH_SEA
 10
0.463486
 20
-0.0425011
 30
0
  0
VERTEX
  8
72_ARTEK_AKFURNITURE_D2_CH_SEA
 10
0.463486
 20
0.0074268
 30
0
  0
VERTEX
  8
72_ARTEK_AKFURNITURE_D2_CH_SEA
 10
0.427986
 20
0.0074268
 30
0
  0
SEQEND
  0
POLYLINE
  8
72_ARTEK_AKFURNITURE_D2_CH_SEA
 66
     1
 70
     0
 10
0.0
 20
0.0
 30
0.0
  0
VERTEX
  8
72_ARTEK_AKFURNITURE_D2_CH_SEA
 10
0.364986
 20
0.063142
 30
0
  0
VERTEX
  8
72_ARTEK_AKFURNITURE_D2_CH_SEA
 10
0.364986
 20
0.0132249
 30
0
  0
VERTEX
  8
72_ARTEK_AKFURNITURE_D2_CH_SEA
 10
0.463486
 20
0.0132249
 30
0
  0
VERTEX
  8
72_ARTEK_AKFURNITURE_D2_CH_SEA
 10
0.463486
 20
0.063142
 30
0
  0
VERTEX
  8
72_ARTEK_AKFURNITURE_D2_CH_SEA
 10
0.364986
 20
0.063142
 30
0
  0
SEQEND
  0
POLYLINE
  8
72_ARTEK_AKFURNITURE_D2_CH_SEA
 66
     1
 70
     0
 10
0.0
 20
0.0
 30
0.0
  0
VERTEX
  8
72_ARTEK_AKFURNITURE_D2_CH_SEA
 10
0.364986
 20
0.0690727
 30
0
  0
VERTEX
  8
72_ARTEK_AKFURNITURE_D2_CH_SEA
 10
0.314986
 20
0.0690208
 30
0
  0
VERTEX
  8
72_ARTEK_AKFURNITURE_D2_CH_SEA
 10
0.314986
 20
0.0074268
 30
0
  0
VERTEX
  8
72_ARTEK_AKFURNITURE_D2_CH_SEA
 10
0.364986
 20
0.0074268
 30
0
  0
VERTEX
  8
72_ARTEK_AKFURNITURE_D2_CH_SEA
 10
0.364986
 20
0.0690727
 30
0
  0
SEQEND
  0
POLYLINE
  8
72_ARTEK_AKFURNITURE_D2_CH_SEA
 66
     1
 70
     0
 10
0.0
 20
0.0
 30
0.0
  0
VERTEX
  8
72_ARTEK_AKFURNITURE_D2_CH_SEA
 10
0.238986
 20
0.063142
 30
0
  0
VERTEX
  8
72_ARTEK_AKFURNITURE_D2_CH_SEA
 10
0.238986
 20
0.0132249
 30
0
  0
VERTEX
  8
72_ARTEK_AKFURNITURE_D2_CH_SEA
 10
0.314986
 20
0.0132249
 30
0
  0
VERTEX
  8
72_ARTEK_AKFURNITURE_D2_CH_SEA
 10
0.314986
 20
0.063142
 30
0
  0
VERTEX
  8
72_ARTEK_AKFURNITURE_D2_CH_SEA
 10
0.238986
 20
0.063142
 30
0
  0
SEQEND
  0
POLYLINE
  8
72_ARTEK_AKFURNITURE_D2_CH_SEA
 66
     1
 70
     0
 10
0.0
 20
0.0
 30
0.0
  0
VERTEX
  8
72_ARTEK_AKFURNITURE_D2_CH_SEA
 10
0.238986
 20
0.0689418
 30
0
  0
VERTEX
  8
72_ARTEK_AKFURNITURE_D2_CH_SEA
 10
0.188986
 20
0.0688899
 30
0
  0
VERTEX
  8
72_ARTEK_AKFURNITURE_D2_CH_SEA
 10
0.188986
 20
0.0074268
 30
0
  0
VERTEX
  8
72_ARTEK_AKFURNITURE_D2_CH_SEA
 10
0.238986
 20
0.0074268
 30
0
  0
VERTEX
  8
72_ARTEK_AKFURNITURE_D2_CH_SEA
 10
0.238986
 20
0.0689418
 30
0
  0
SEQEND
  0
POLYLINE
  8
72_ARTEK_AKFURNITURE_D2_CH_SEA
 66
     1
 70
     0
 10
0.0
 20
0.0
 30
0.0
  0
VERTEX
  8
72_ARTEK_AKFURNITURE_D2_CH_SEA
 10
0.188986
 20
0.063142
 30
0
  0
VERTEX
  8
72_ARTEK_AKFURNITURE_D2_CH_SEA
 10
0.112986
 20
0.063142
 30
0
  0
VERTEX
  8
72_ARTEK_AKFURNITURE_D2_CH_SEA
 10
0.112986
 20
0.0132249
 30
0
  0
VERTEX
  8
72_ARTEK_AKFURNITURE_D2_CH_SEA
 10
0.188986
 20
0.0132249
 30
0
  0
VERTEX
  8
72_ARTEK_AKFURNITURE_D2_CH_SEA
 10
0.188986
 20
0.063142
 30
0
  0
SEQEND
  0
POLYLINE
  8
72_ARTEK_AKFURNITURE_D2_CH_SEA
 66
     1
 70
     0
 10
0.0
 20
0.0
 30
0.0
  0
VERTEX
  8
72_ARTEK_AKFURNITURE_D2_CH_SEA
 10
0.112986
 20
0.0688109
 30
0
  0
VERTEX
  8
72_ARTEK_AKFURNITURE_D2_CH_SEA
 10
0.0629862
 20
0.0687589
 30
0
  0
VERTEX
  8
72_ARTEK_AKFURNITURE_D2_CH_SEA
 10
0.0629862
 20
0.0074268
 30
0
  0
VERTEX
  8
72_ARTEK_AKFURNITURE_D2_CH_SEA
 10
0.112986
 20
0.0074268
 30
0
  0
VERTEX
  8
72_ARTEK_AKFURNITURE_D2_CH_SEA
 10
0.112986
 20
0.0688109
 30
0
  0
SEQEND
  0
POLYLINE
  8
72_ARTEK_AKFURNITURE_D2_CH_SEA
 66
     1
 70
     0
 10
0.0
 20
0.0
 30
0.0
  0
VERTEX
  8
72_ARTEK_AKFURNITURE_D2_CH_SEA
 10
0.0274862
 20
0.063142
 30
0
  0
VERTEX
  8
72_ARTEK_AKFURNITURE_D2_CH_SEA
 10
0.0274862
 20
0.0132249
 30
0
  0
VERTEX
  8
72_ARTEK_AKFURNITURE_D2_CH_SEA
 10
0.0629862
 20
0.0132249
 30
0
  0
VERTEX
  8
72_ARTEK_AKFURNITURE_D2_CH_SEA
 10
0.0629862
 20
0.063142
 30
0
  0
VERTEX
  8
72_ARTEK_AKFURNITURE_D2_CH_SEA
 10
0.0274862
 20
0.063142
 30
0
  0
SEQEND
  0
POLYLINE
  8
72_ARTEK_AKFURNITURE_D2_CH_SEA
 66
     1
 70
     0
 10
0.0
 20
0.0
 30
0.0
  0
VERTEX
  8
72_ARTEK_AKFURNITURE_D2_CH_SEA
 10
0.0274862
 20
0.119173
 30
0
  0
VERTEX
  8
72_ARTEK_AKFURNITURE_D2_CH_SEA
 10
0.0274862
 20
0.0687221
 30
0
  0
VERTEX
  8
72_ARTEK_AKFURNITURE_D2_CH_SEA
 10
0.125986
 20
0.0688244
 30
0
  0
VERTEX
  8
72_ARTEK_AKFURNITURE_D2_CH_SEA
 10
0.125986
 20
0.119178
 30
0
  0
VERTEX
  8
72_ARTEK_AKFURNITURE_D2_CH_SEA
 10
0.0274862
 20
0.119173
 30
0
  0
SEQEND
  0
POLYLINE
  8
72_ARTEK_AKFURNITURE_D2_CH_SEA
 66
     1
 70
     0
 10
0.0
 20
0.0
 30
0.0
  0
VERTEX
  8
72_ARTEK_AKFURNITURE_D2_CH_SEA
 10
0.16611
 20
0.157263
 30
0
  0
VERTEX
  8
72_ARTEK_AKFURNITURE_D2_CH_SEA
 10
0.125986
 20
0.15485
 30
0
  0
VERTEX
  8
72_ARTEK_AKFURNITURE_D2_CH_SEA
 10
0.125986
 20
0.063142
 30
0
  0
VERTEX
  8
72_ARTEK_AKFURNITURE_D2_CH_SEA
 10
0.175844
 20
0.063142
 30
0
  0
VERTEX
  8
72_ARTEK_AKFURNITURE_D2_CH_SEA
 10
0.175802
 20
0.157706
 30
0
  0
VERTEX
  8
72_ARTEK_AKFURNITURE_D2_CH_SEA
 10
0.16611
 20
0.157263
 30
0
  0
SEQEND
  0
POLYLINE
  8
72_ARTEK_AKFURNITURE_D2_CH_SEA
 66
     1
 70
     0
 10
0.0
 20
0.0
 30
0.0
  0
VERTEX
  8
72_ARTEK_AKFURNITURE_D2_CH_SEA
 10
0.251986
 20
0.0689553
 30
0
  0
VERTEX
  8
72_ARTEK_AKFURNITURE_D2_CH_SEA
 10
0.251986
 20
0.119184
 30
0
  0
VERTEX
  8
72_ARTEK_AKFURNITURE_D2_CH_SEA
 10
0.175819
 20
0.11918
 30
0
  0
VERTEX
  8
72_ARTEK_AKFURNITURE_D2_CH_SEA
 10
0.175842
 20
0.0688762
 30
0
  0
VERTEX
  8
72_ARTEK_AKFURNITURE_D2_CH_SEA
 10
0.251986
 20
0.0689553
 30
0
  0
SEQEND
  0
POLYLINE
  8
72_ARTEK_AKFURNITURE_D2_CH_SEA
 66
     1
 70
     0
 10
0.0
 20
0.0
 30
0.0
  0
VERTEX
  8
72_ARTEK_AKFURNITURE_D2_CH_SEA
 10
0.256992
 20
0.158852
 30
0
  0
VERTEX
  8
72_ARTEK_AKFURNITURE_D2_CH_SEA
 10
0.251986
 20
0.158856
 30
0
  0
VERTEX
  8
72_ARTEK_AKFURNITURE_D2_CH_SEA
 10
0.251986
 20
0.063142
 30
0
  0
VERTEX
  8
72_ARTEK_AKFURNITURE_D2_CH_SEA
 10
0.301986
 20
0.063142
 30
0
  0
VERTEX
  8
72_ARTEK_AKFURNITURE_D2_CH_SEA
 10
0.301986
 20
0.158174
 30
0
  0
VERTEX
  8
72_ARTEK_AKFURNITURE_D2_CH_SEA
 10
0.256992
 20
0.158852
 30
0
  0
SEQEND
  0
POLYLINE
  8
72_ARTEK_AKFURNITURE_D2_CH_SEA
 66
     1
 70
     0
 10
0.0
 20
0.0
 30
0.0
  0
VERTEX
  8
72_ARTEK_AKFURNITURE_D2_CH_SEA
 10
0.301986
 20
0.119186
 30
0
  0
VERTEX
  8
72_ARTEK_AKFURNITURE_D2_CH_SEA
 10
0.301986
 20
0.0690073
 30
0
  0
VERTEX
  8
72_ARTEK_AKFURNITURE_D2_CH_SEA
 10
0.377986
 20
0.0690862
 30
0
  0
VERTEX
  8
72_ARTEK_AKFURNITURE_D2_CH_SEA
 10
0.377986
 20
0.11919
 30
0
  0
VERTEX
  8
72_ARTEK_AKFURNITURE_D2_CH_SEA
 10
0.301986
 20
0.119186
 30
0
  0
SEQEND
  0
POLYLINE
  8
72_ARTEK_AKFURNITURE_D2_CH_SEA
 66
     1
 70
     0
 10
0.0
 20
0.0
 30
0.0
  0
VERTEX
  8
72_ARTEK_AKFURNITURE_D2_CH_SEA
 10
0.417762
 20
0.150551
 30
0
  0
VERTEX
  8
72_ARTEK_AKFURNITURE_D2_CH_SEA
 10
0.393348
 20
0.152756
 30
0
  0
VERTEX
  8
72_ARTEK_AKFURNITURE_D2_CH_SEA
 10
0.377986
 20
0.153991
 30
0
  0
VERTEX
  8
72_ARTEK_AKFURNITURE_D2_CH_SEA
 10
0.377986
 20
0.063142
 30
0
  0
VERTEX
  8
72_ARTEK_AKFURNITURE_D2_CH_SEA
 10
0.427986
 20
0.063142
 30
0
  0
VERTEX
  8
72_ARTEK_AKFURNITURE_D2_CH_SEA
 10
0.427986
 20
0.149342
 30
0
  0
VERTEX
  8
72_ARTEK_AKFURNITURE_D2_CH_SEA
 10
0.417762
 20
0.150551
 30
0
  0
SEQEND
  0
POLYLINE
  8
72_ARTEK_AKFURNITURE_D2_CH_SEA
 66
     1
 70
     0
 10
0.0
 20
0.0
 30
0.0
  0
VERTEX
  8
72_ARTEK_AKFURNITURE_D2_CH_SEA
 10
0.427986
 20
0.119193
 30
0
  0
VERTEX
  8
72_ARTEK_AKFURNITURE_D2_CH_SEA
 10
0.427986
 20
0.0691382
 30
0
  0
VERTEX
  8
72_ARTEK_AKFURNITURE_D2_CH_SEA
 10
0.463486
 20
0.0691751
 30
0
  0
VERTEX
  8
72_ARTEK_AKFURNITURE_D2_CH_SEA
 10
0.463486
 20
0.119194
 30
0
  0
VERTEX
  8
72_ARTEK_AKFURNITURE_D2_CH_SEA
 10
0.427986
 20
0.119193
 30
0
  0
SEQEND
  0
POLYLINE
  8
72_ARTEK_AKFURNITURE_D2_CH_SEA
 66
     1
 70
     0
 10
0.0
 20
0.0
 30
0.0
  0
VERTEX
  8
72_ARTEK_AKFURNITURE_D2_CH_SEA
 10
0.314986
 20
0.157716
 30
0
  0
VERTEX
  8
72_ARTEK_AKFURNITURE_D2_CH_SEA
 10
0.314986
 20
0.119187
 30
0
  0
VERTEX
  8
72_ARTEK_AKFURNITURE_D2_CH_SEA
 10
0.364986
 20
0.119189
 30
0
  0
VERTEX
  8
72_ARTEK_AKFURNITURE_D2_CH_SEA
 10
0.364986
 20
0.15485
 30
0
  0
VERTEX
  8
72_ARTEK_AKFURNITURE_D2_CH_SEA
 10
0.324843
 20
0.157264
 30
0
  0
VERTEX
  8
72_ARTEK_AKFURNITURE_D2_CH_SEA
 10
0.314986
 20
0.157716
 30
0
  0
SEQEND
  0
POLYLINE
  8
72_ARTEK_AKFURNITURE_D2_CH_SEA
 66
     1
 70
     0
 10
0.0
 20
0.0
 30
0.0
  0
VERTEX
  8
72_ARTEK_AKFURNITURE_D2_CH_SEA
 10
0.188986
 20
0.158174
 30
0
  0
VERTEX
  8
72_ARTEK_AKFURNITURE_D2_CH_SEA
 10
0.188986
 20
0.119181
 30
0
  0
VERTEX
  8
72_ARTEK_AKFURNITURE_D2_CH_SEA
 10
0.238986
 20
0.119183
 30
0
  0
VERTEX
  8
72_ARTEK_AKFURNITURE_D2_CH_SEA
 10
0.238986
 20
0.158856
 30
0
  0
VERTEX
  8
72_ARTEK_AKFURNITURE_D2_CH_SEA
 10
0.233979
 20
0.158852
 30
0
  0
VERTEX
  8
72_ARTEK_AKFURNITURE_D2_CH_SEA
 10
0.188986
 20
0.158174
 30
0
  0
SEQEND
  0
POLYLINE
  8
72_ARTEK_AKFURNITURE_D2_CH_SEA
 66
     1
 70
     0
 10
0.0
 20
0.0
 30
0.0
  0
VERTEX
  8
72_ARTEK_AKFURNITURE_D2_CH_SEA
 10
0.0733846
 20
0.15056
 30
0
  0
VERTEX
  8
72_ARTEK_AKFURNITURE_D2_CH_SEA
 10
0.0629862
 20
0.149331
 30
0
  0
VERTEX
  8
72_ARTEK_AKFURNITURE_D2_CH_SEA
 10
0.0629862
 20
0.119174
 30
0
  0
VERTEX
  8
72_ARTEK_AKFURNITURE_D2_CH_SEA
 10
0.112986
 20
0.119177
 30
0
  0
VERTEX
  8
72_ARTEK_AKFURNITURE_D2_CH_SEA
 10
0.112986
 20
0.153989
 30
0
  0
VERTEX
  8
72_ARTEK_AKFURNITURE_D2_CH_SEA
 10
0.0977772
 20
0.152766
 30
0
  0
VERTEX
  8
72_ARTEK_AKFURNITURE_D2_CH_SEA
 10
0.097777
 20
0.152764
 30
0
  0
VERTEX
  8
72_ARTEK_AKFURNITURE_D2_CH_SEA
 10
0.0733846
 20
0.15056
 30
0
  0
SEQEND
  0
POLYLINE
  8
72_ARTEK_AKFURNITURE_D2_CH_SEA
 66
     1
 70
     0
 10
0.0
 20
0.0
 30
0.0
  0
VERTEX
  8
72_ARTEK_AKFURNITURE_D2_CH_SEA
 10
0.364986
 20
-0.155191
 30
0
  0
VERTEX
  8
72_ARTEK_AKFURNITURE_D2_CH_SEA
 10
0.314986
 20
-0.155191
 30
0
  0
VERTEX
  8
72_ARTEK_AKFURNITURE_D2_CH_SEA
 10
0.314986
 20
-0.256208
 30
0
  0
VERTEX
  8
72_ARTEK_AKFURNITURE_D2_CH_SEA
 10
0.364986
 20
-0.256208
 30
0
  0
VERTEX
  8
72_ARTEK_AKFURNITURE_D2_CH_SEA
 10
0.364986
 20
-0.155191
 30
0
  0
SEQEND
  0
POLYLINE
  8
72_ARTEK_AKFURNITURE_D2_CH_SEA
 66
     1
 70
     0
 10
0.0
 20
0.0
 30
0.0
  0
VERTEX
  8
72_ARTEK_AKFURNITURE_D2_CH_SEA
 10
0.440483
 20
0.201058
 30
0
  0
VERTEX
  8
72_ARTEK_AKFURNITURE_D2_CH_SEA
 10
0.440317
 20
0.214896
 30
0
  0
VERTEX
  8
72_ARTEK_AKFURNITURE_D2_CH_SEA
 10
0.440195
 20
0.21844
 30
0
  0
VERTEX
  8
72_ARTEK_AKFURNITURE_D2_CH_SEA
 10
0.4404
 20
0.227135
 30
0
  0
VERTEX
  8
72_ARTEK_AKFURNITURE_D2_CH_SEA
 10
0.440428
 20
0.227644
 30
0
  0
VERTEX
  8
72_ARTEK_AKFURNITURE_D2_CH_SEA
 10
0.44056
 20
0.22917
 30
0
  0
VERTEX
  8
72_ARTEK_AKFURNITURE_D2_CH_SEA
 10
0.440744
 20
0.230893
 30
0
  0
VERTEX
  8
72_ARTEK_AKFURNITURE_D2_CH_SEA
 10
0.440927
 20
0.232442
 30
0
  0
VERTEX
  8
72_ARTEK_AKFURNITURE_D2_CH_SEA
 10
0.442978
 20
0.249019
 30
0
  0
VERTEX
  8
72_ARTEK_AKFURNITURE_D2_CH_SEA
 10
0.44316
 20
0.250417
 30
0
  0
VERTEX
  8
72_ARTEK_AKFURNITURE_D2_CH_SEA
 10
0.44334
 20
0.251621
 30
0
  0
VERTEX
  8
72_ARTEK_AKFURNITURE_D2_CH_SEA
 10
0.443456
 20
0.252188
 30
0
  0
VERTEX
  8
72_ARTEK_AKFURNITURE_D2_CH_SEA
 10
0.41858
 20
0.255117
 30
0
  0
VERTEX
  8
72_ARTEK_AKFURNITURE_D2_CH_SEA
 10
0.393642
 20
0.25733
 30
0
  0
VERTEX
  8
72_ARTEK_AKFURNITURE_D2_CH_SEA
 10
0.393578
 20
0.256903
 30
0
  0
VERTEX
  8
72_ARTEK_AKFURNITURE_D2_CH_SEA
 10
0.391443
 20
0.232874
 30
0
  0
VERTEX
  8
72_ARTEK_AKFURNITURE_D2_CH_SEA
 10
0.391415
 20
0.232195
 30
0
  0
VERTEX
  8
72_ARTEK_AKFURNITURE_D2_CH_SEA
 10
0.391375
 20
0.221937
 30
0
  0
VERTEX
  8
72_ARTEK_AKFURNITURE_D2_CH_SEA
 10
0.39151
 20
0.205385
 30
0
  0
VERTEX
  8
72_ARTEK_AKFURNITURE_D2_CH_SEA
 10
0.439605
 20
0.201171
 30
0
  0
VERTEX
  8
72_ARTEK_AKFURNITURE_D2_CH_SEA
 10
0.440483
 20
0.201058
 30
0
  0
SEQEND
  0
POLYLINE
  8
72_ARTEK_AKFURNITURE_D2_CH_SEA
 66
     1
 70
     0
 10
0.0
 20
0.0
 30
0.0
  0
VERTEX
  8
72_ARTEK_AKFURNITURE_D2_CH_SEA
 10
0.453793
 20
0.199064
 30
0
  0
VERTEX
  8
72_ARTEK_AKFURNITURE_D2_CH_SEA
 10
0.453847
 20
0.19905
 30
0
  0
VERTEX
  8
72_ARTEK_AKFURNITURE_D2_CH_SEA
 10
0.461514
 20
0.197909
 30
0
  0
VERTEX
  8
72_ARTEK_AKFURNITURE_D2_CH_SEA
 10
0.461514
 20
0.211659
 30
0
  0
VERTEX
  8
72_ARTEK_AKFURNITURE_D2_CH_SEA
 10
0.440317
 20
0.214881
 30
0
  0
VERTEX
  8
72_ARTEK_AKFURNITURE_D2_CH_SEA
 10
0.440483
 20
0.201058
 30
0
  0
VERTEX
  8
72_ARTEK_AKFURNITURE_D2_CH_SEA
 10
0.453793
 20
0.199064
 30
0
  0
SEQEND
  0
POLYLINE
  8
72_ARTEK_AKFURNITURE_D2SNAP
 66
     1
 70
     0
 10
0.0
 20
0.0
 30
0.0
  0
VERTEX
  8
72_ARTEK_AKFURNITURE_D2SNAP
 10
0.258
 20
-0
 30
0
  0
VERTEX
  8
72_ARTEK_AKFURNITURE_D2SNAP
 10
0.25776
 20
0.00243863
 30
0
  0
VERTEX
  8
72_ARTEK_AKFURNITURE_D2SNAP
 10
0.257048
 20
0.00478354
 30
0
  0
VERTEX
  8
72_ARTEK_AKFURNITURE_D2SNAP
 10
0.255893
 20
0.00694463
 30
0
  0
VERTEX
  8
72_ARTEK_AKFURNITURE_D2SNAP
 10
0.254339
 20
0.00883883
 30
0
  0
VERTEX
  8
72_ARTEK_AKFURNITURE_D2SNAP
 10
0.252445
 20
0.0103934
 30
0
  0
VERTEX
  8
72_ARTEK_AKFURNITURE_D2SNAP
 10
0.250284
 20
0.0115485
 30
0
  0
VERTEX
  8
72_ARTEK_AKFURNITURE_D2SNAP
 10
0.247939
 20
0.0122598
 30
0
  0
VERTEX
  8
72_ARTEK_AKFURNITURE_D2SNAP
 10
0.2455
 20
0.0125
 30
0
  0
VERTEX
  8
72_ARTEK_AKFURNITURE_D2SNAP
 10
0.243061
 20
0.0122598
 30
0
  0
VERTEX
  8
72_ARTEK_AKFURNITURE_D2SNAP
 10
0.240716
 20
0.0115485
 30
0
  0
VERTEX
  8
72_ARTEK_AKFURNITURE_D2SNAP
 10
0.238555
 20
0.0103934
 30
0
  0
VERTEX
  8
72_ARTEK_AKFURNITURE_D2SNAP
 10
0.236661
 20
0.00883883
 30
0
  0
VERTEX
  8
72_ARTEK_AKFURNITURE_D2SNAP
 10
0.235107
 20
0.00694463
 30
0
  0
VERTEX
  8
72_ARTEK_AKFURNITURE_D2SNAP
 10
0.233952
 20
0.00478354
 30
0
  0
VERTEX
  8
72_ARTEK_AKFURNITURE_D2SNAP
 10
0.23324
 20
0.00243863
 30
0
  0
VERTEX
  8
72_ARTEK_AKFURNITURE_D2SNAP
 10
0.233
 20
3.15316e-018
 30
0
  0
VERTEX
  8
72_ARTEK_AKFURNITURE_D2SNAP
 10
0.23324
 20
-0.00243863
 30
0
  0
VERTEX
  8
72_ARTEK_AKFURNITURE_D2SNAP
 10
0.233952
 20
-0.00478354
 30
0
  0
VERTEX
  8
72_ARTEK_AKFURNITURE_D2SNAP
 10
0.235107
 20
-0.00694463
 30
0
  0
VERTEX
  8
72_ARTEK_AKFURNITURE_D2SNAP
 10
0.236661
 20
-0.00883883
 30
0
  0
VERTEX
  8
72_ARTEK_AKFURNITURE_D2SNAP
 10
0.238555
 20
-0.0103934
 30
0
  0
VERTEX
  8
72_ARTEK_AKFURNITURE_D2SNAP
 10
0.240716
 20
-0.0115485
 30
0
  0
VERTEX
  8
72_ARTEK_AKFURNITURE_D2SNAP
 10
0.243061
 20
-0.0122598
 30
0
  0
VERTEX
  8
72_ARTEK_AKFURNITURE_D2SNAP
 10
0.2455
 20
-0.0125
 30
0
  0
VERTEX
  8
72_ARTEK_AKFURNITURE_D2SNAP
 10
0.247939
 20
-0.0122598
 30
0
  0
VERTEX
  8
72_ARTEK_AKFURNITURE_D2SNAP
 10
0.250284
 20
-0.0115485
 30
0
  0
VERTEX
  8
72_ARTEK_AKFURNITURE_D2SNAP
 10
0.252445
 20
-0.0103934
 30
0
  0
VERTEX
  8
72_ARTEK_AKFURNITURE_D2SNAP
 10
0.254339
 20
-0.00883883
 30
0
  0
VERTEX
  8
72_ARTEK_AKFURNITURE_D2SNAP
 10
0.255893
 20
-0.00694463
 30
0
  0
VERTEX
  8
72_ARTEK_AKFURNITURE_D2SNAP
 10
0.257048
 20
-0.00478354
 30
0
  0
VERTEX
  8
72_ARTEK_AKFURNITURE_D2SNAP
 10
0.25776
 20
-0.00243863
 30
0
  0
VERTEX
  8
72_ARTEK_AKFURNITURE_D2SNAP
 10
0.258
 20
-0
 30
0
  0
SEQEND
  0
POLYLINE
  8
72_ARTEK_AKFURNITURE_D2SNAP
 66
     1
 70
     0
 10
0.0
 20
0.0
 30
0.0
  0
VERTEX
  8
72_ARTEK_AKFURNITURE_D2SNAP
 10
0.227822
 20
-0.0176777
 30
0
  0
VERTEX
  8
72_ARTEK_AKFURNITURE_D2SNAP
 10
0.263178
 20
0.0176777
 30
0
  0
SEQEND
  0
POLYLINE
  8
72_ARTEK_AKFURNITURE_D2SNAP
 66
     1
 70
     0
 10
0.0
 20
0.0
 30
0.0
  0
VERTEX
  8
72_ARTEK_AKFURNITURE_D2SNAP
 10
0.227822
 20
0.0176777
 30
0
  0
VERTEX
  8
72_ARTEK_AKFURNITURE_D2SNAP
 10
0.263178
 20
-0.0176777
 30
0
  0
SEQEND
  0
ENDBLK
  8
0
  0
BLOCK
  8
0
  2
OB2D__000001
 70
    64
 10
0.0
 20
0.0
 30
0.0
  3
OB2D__000001
  0
ENDBLK
  8
0
  0
ENDSEC
  0
SECTION
  2
ENTITIES
  0
INSERT
  8
72OFGO2D01_GRAFIK
  2
OB2D__000000
 10
0.0
 20
0.0
 30
0.0
  0
INSERT
  8
72OFGO2D01_GRAFIK
  2
OB2D__000001
 10
0.0
 20
0.0
 30
0.0
  0
ENDSEC
  0
EOF
